Cifra Club

Aprenda

Wither

Dream Theater

Cifra: Versão 4 (violão e guitarra)
tom: B
p = pull
b = bend

Aqui, como ele usa guitarra de 7 cordas, eu improvisei na introdução.
(Intro)
E |--------------------|
B |--------------------|
G |--------------------|
D |-------3---------6--|
A |---4---------4------|
E |-6---6-----2---2----|

(intro)
Let it out, let it out
Feel the empty Space
So insecure find the words and let it out
E |-----------------------------------------|
B |-----------------------------------------|
G |-----------------------------------------|
D |-------3---------6------3---6------------|
A |---4---------4--------4---4-------6---4--|
E |-6---6-----2---2----------------4---4----|

(intro)
Staring down, staring down
Nothing comes to mind
Find the place turn the water into wine
E |-----------------------------------------|
B |-----------------------------------------|
G |-----------------------------------------|
D |-------3---------6------3---6------------|
A |---4---------4--------4---4-------6---4--|
E |-6---6-----2---2----------------4---4----|

F#5               A#m5
But I feel I'm getting nowhere
F#5              C#/F    G#5
And I'll never see the end

   C#5   G#/C
So I wither
  A#m5       F#5
And render myself helpless
  C#5   G#/C   A#m5         F#5
I give in and everything is clear
  C#5  G#/C
I breakdown
  F#5
And let the story guide me

(intro)
Turn it on
Turn it on
Let the feelings flow
Close your eyes
See the ones you used to know
E |-----------------------------------------|
B |-----------------------------------------|
G |-----------------------------------------|
D |-------3---------6------3---6------------|
A |---4---------4--------4---4-------6---4--|
E |-6---6-----2---2----------------4---4----|

(intro)
Open up open up
Don't struggle to relate
Lure it out
Help the memory escape
E |-----------------------------------------|
B |-----------------------------------------|
G |-----------------------------------------|
D |-------3---------6------3---6------------|
A |---4---------4--------4---4-------6---4--|
E |-6---6-----2---2----------------4---4----|

F#5                 A#m5
Still transparantness consumes me
F#5               C#/F   G#5
And I feel like giving up

   C#5   G#/C
So I wither
  A#m5       F#5
And render myself helpless
  C#5   G#/C   A#m5         F#5
I give in and everything is clear
  C#5  G#/C
I breakdown
  A#m5         F#5
And let the story guide me
  C#5   G#/C
I wither
  A#m5      F#5
And give myself away

D#m5                F#5
Like reflections on the cage
  G#5           (F#5   G#5 A#m5)2x
The worlds want to create

  F#5        G#5
I drown in hesitation
 A#m5
My words come crashing down
  F#5       C#/F
And all my best creations
A#m5
Burning to the ground

  F#5         G#5
The final staring over
C#5    G#/C  A#m5
Leaves me paralysed
     F#5
Tear it out again
C#/F        G#5
Another one that got away

(piano)
I wither
And render myself helpless
I give in
And everything is clear

E |----------------6--8--9----------------------------------------------------6--8---9b--9p8p9-|
B |-------------------------6---9b--------------6-8-9----------------6--8--9-------------------|
G |-6---8b--8p6p8-------------------------5-6-8-------------5--6--8----------------------------|
D |---------------------------------5-6-8-------------6--8-------------------------------------|
A |--------------------------------------------------------------------------------------------|
E |--------------------------------------------------------------------------------------------|

E |-11-9-11-9------11-9-11-9------13-11-13-11------13-11-13-11------14-11-14-11------14-11-14-11------14b-|
B |-----------11-9-----------11-9-------------11-9-------------11-9-------------11-9-------------11-9-----|
G |-------------------------------------------------------------------------------------------------------|
D |-------------------------------------------------------------------------------------------------------|
A |-------------------------------------------------------------------------------------------------------|
E |-------------------------------------------------------------------------------------------------------|

   C#5   G#/C
So I wither
  A#m5       F#5
And render myself helpless
  C#5   G#/C   A#m5         F#5
I give in and everything is clear
  C#5  G#/C
I breakdown
  A#m5         F#5
And let the story guide me
  C#5   G#/C
I wither
  A#m5      F#5
And give myself away

D#m5                F#5
Like reflections on the cage
  G#5
The worlds want to create

(intro)
The worlds which you create

Let it out let it out
Composição de John Petrucci
Colaboração e revisão:
  • Giulliano Finazzo
1.982 exibições
  • Simplificar cifra
    • ½ Tom
    • A
    • Bb
    • B
    • C
    • Db
    • D
    • Eb
    • E
    • F
    • F#
    • G
    • Ab
  • Adicionar à lista

    0 comentários

    Ver todos os comentários
    00:00 / 00:00
    outros vídeos desta música
    repetir qualidade Automático
    Outros vídeos desta música
    00:00 / 00:00
    Automático

    Cifra Club Pro

    Aproveite o Cifra Club com benefícios exclusivos e sem anúncios
    Cifra Club Pro
    Aproveite o Cifra Club com benefícios exclusivos e sem anúncios
    OK