Cifra Club

Aprenda

Erotomania

Dream Theater

Cifra: Principal (violão e guitarra)
tom: B
Introdução e Primeira Parte:

(Riff 1)
E|---------------------------------------------------
B|---------------------------------------------------
G|---------------------------------------------------
D|---------------------------------------------------
A|-------------2--5--4---------------------4--7--6---
E|-2--3--4--5-----------3---0--4--5--6--7----------5-

(variação)
   P.M.  .  .  .  .  .  .   .  .  .  .  .  .  .  . .
E|---------------------------------------------------
B|---------------------------------------------------
G|---------------------------------------------------
D|---------------------------------------------------
A|-------------2--5--4---------------------4--7--6---
E|-2—-3--4--5-----------3---0--4--5--6--7----------5-

E|---------------------------------------------------
B|---------------------------------------------------
G|---------------------------------------------------
D|---------------------------------------------------
A|---------------2--5--4--------------------4--7-6---
E|-0--2--3--4--5----------3---0--4--5--6--7--------5-

(Riff 2)
E|---------------------------------------------------
B|---------------------------------------------------
G|---------------------------------------------------
D|----------9--8-----6------------7--6-----5---------
A|-7-----7--------7---------4--5--------------3------
E|----7------------------0--------------3--------1---

(variação)
E|---------------------------------------------------
B|---------------------------------------------------
G|---------------------------------------------------
D|----------9-8h9p8h...---6-----------7--6---5-------
A|-7-----7--------------7-------4--5------------3----
E|----7----------------------0-------------3-------1-

E|---------------------------------------------------
B|---------------------------------------------------
G|---------------------------------------------------
D|----------9--8----6---3--5--7---1--3--5------------
A|---7---7--------7-------------5---------3--3h4-3-2-
E|-0---7--------------0------------------------------

E|---------------------------------------------------
B|---------------------------------------------------
G|---------------------------------------------------
D|----------9--8-----6------------7--6-----5---------
A|-7-----7--------7---------4--5--------------3------
E|----7------------------0--------------3--------1---

E|----------------------10--12--13------8--10--11----
B|----------------------------------10~-----------8~-
G|---------------------------------------------------
D|----------9--8-----6-------------------------------
A|-7-----7--------7----------------------------------
E|----7----------------------------------------------

E|---------------------------------------------------
B|-10h11--11--10-------------------------------------
G|----------------11~--------------------------------
D|---------------------------------------------------
A|---------------------------------------------------
E|---------------------------------------------------

( Riff 1 e Riff 2 )

(Riff 3)
E|---------------------------------------------------
B|---------------------------------------------------
G|---------------------------------------------------
D|---------------------------------------------------
A|---------------------------------------------------
E|-3-----2------1------0---3------2------1---0------

E|---------------------------------------------------
B|---------------------------------------------------
G|---------------------------------------------------
D|-5------4------3---2------5------7---10---9--------
A|---------------------------------------------------
E|---------------------------------------------------

   P.M .   .   .   .   .   .   .   .   .   .
E|---------------------------------------------------
B|---------------------------------------------------
G|---------------------------------------------------
D|---------------------------------------------------
A|-5---5---5---4---4---4---3---3---3---2---2---------
E|-3---3---3---2---2---2---1---1---1---0---0---------

   P.M .   .   .   .   .   .   .   .   .
E|---------------------------------------------------
B|---------------------------------------------------
G|---------------------------------------------------
D|---------------------------------------------------
A|-5---5---5---4---4---4---3---3---2---2-------------
E|-3---3---3---2---2---2---1---1---0---0-------------

E|---------------------------------------------------
B|-8----x-7----x-6-----------------------------------
G|-7----x-6----x-5-----------------------------------
D|-5----x-4----x-3-----------------------------------
A|-5----x-4----x-3-----------------------------------
E|---------------------------------------------------

Solo 1:

E|-14------------------------------------------------
B|-17b19~~--15-----14-----14p13----------------------
G|----------17b19--16b18--------15-13-14-------------
D|---------------------------------------------------
A|---------------------------------------------------
E|---------------------------------------------------

E|------------------------------19p14-19p14----------
B|----------14-15-17---------17-------------19-14-20-
G|-13-14-16----------14--16--------------------------
D|---------------------------------------------------
A|---------------------------------------------------
E|---------------------------------------------------

E|-19-19-14-14---------------------------------------
B|-------------19-19-14-14---------------------------
G|-------------------------16-16-11-11---------------
D|-------------------------------------16-16---------
A|---------------------------------------------------
E|---------------------------------------------------

E|-----------------------------------14--------------
B|------------------12-15-14------------------16-14--
G|-------16------------------12-0-12-------15--------
D|----14--------------------------------13-----------
A|-12-------/14--12----------------------------------
E|---------------------------------------------------

E|---------------------------------------------------
B|-17-16---------------------------------------------
G|-------14h15p14h15p14h15p14h15---------------------
D|---------------------------------------------------
A|---------------------------------------------------
E|---------------------------------------------------

E|-17-14-15-16-15-14---------------------------------
B|-------------------17-16-15-14----14-15------------
G|-------------------------------16------------------
D|---------------------------------------------------
A|---------------------------------------------------
E|---------------------------------------------------

E|------------------------------------------19-20-21-
B|-17-15-14-------------------19~--19-20-21----------
G|----------16-15-14---------------------------------
D|-------------------18-17-15------------------------
A|---------------------------------------------------
E|---------------------------------------------------

E|-19------------------------------------------------
B|---------------------------------------------------
G|---------------------------------------------------
D|---------------------------------------------------
A|---------------------------------------------------
E|---------------------------------------------------

Segunda Parte:

(Riff 4 - 2x)
E|---------------------------------------------------
B|---------------------------------------------------
G|---------------------------------------------------
D|------------------------------------------------4--
A|-------------2--2-----------------2/4--4--6--6-----
E|-4--4--2--4--------4--2--4--4--4-------------------

E|---------------------------------------------------
B|---------------------------------------------------
G|---------------------------------------------------
D|---------------------------------------------------
A|----------2--2--2-----------------2--2--4--4-------
E|-4--4--2-----------4--2--4--4--4--------------2----

E|---------------------------------------------------
B|---------------------------------------------------
G|---------------------------------------------------
D|------------------------------------------------4--
A|-------------2--2-----------------2/4--4--6--6-----
E|-4--4--2--4--------4--2--4--4--4-------------------

E|---------------------------------------------------
B|---------------------------------------------------
G|---------------------------------------------------
D|---------------------------------------------------
A|----------2--2--2-----------------2--2--4--4-------
E|-4--4--2-----------4--2--4--4--4--------------2----

E|---------------------------------------------------
B|---------------------------------------------------
G|---------------------------------------------------
D|---------------------------------------------------
A|-------------1--1----------2-1--1-----1--4-2-1-----
E|-4--4--2--4-------4--2--4----------4-----------4-2-

E|---------------------------------------------------
B|---------------------------------------------------
G|-------------------------------------1-------------
D|-------------1--1-----------1-----2----4-2-1-------
A|-2--2--1--2--------4--2--4-----4-------------2-1---
E|-------------------------------------------------2-

E|---------------------------------------------------
B|---------------------------------------------------
G|---------------------------------------------------
D|---------------------------------------------x-----
A|-------------------------------------------7-x-----
E|-0--0--2--4---4--2--0--2--4--6---4---2--4----x-----

E|---------------------------------------------------
B|---------------------------------------------------
G|---------------------------------------------------
D|---------------------------------------------------
A|----7--6-4----------2--1--2----2h4--2--1-----------
E|-4---------7--6--4-----------------------2---------

(Riff 5)
E|---------------------------------------------------
B|---------------------------------------------------
G|---------------------------------------------------
D|---------------------------------------------------
A|---------------------------------------------------
E|-4--2--4----4--2--4---6---4--6---7--6--7---7--6--7-

                       P.M .   . .       . . .   . .
E|---------------------------------------------------
B|---------------------------------------------------
G|---------------------------------------------------
D|---------------------------------------------------
A|-------------------2-------2---------4-------4-----
E|-7/9--7--6--4---2--0-0-0-0-0-0-0-2h4-2-2-2-2-2-2-2-

         P.M .   . .       . . .   . .
E|---------------------------------------------------
B|---------------------------------------------------
G|---------------------------------------------------
D|---------------------------------------------------
A|-----7-------7---------9-------9-------------------
E|-4h6-4-4-4-4-4-4-4-6h7-6-6-6-6-6-6-6--2-4--2--4----

Terceira Parte:

(Riff 6)
    P.M.  .  .  .  .  .  .  .  .  .  .  .  .  .  .
E|---------------------------------------------------
B|---------------------------------------------------
G|--8-----8--9--8-----8--9--6-----6--8--6-----6--8---
D|-----6-----------6-----------4-----------4---------
A|---------------------------------------------------
E|---------------------------------------------------

   P.M .  .  .  .  .  .  .  .  .  .  .  .  .  .  .
E|---------------------------------------------------
B|---------------------------------------------------
G|-4-----4--6--4-----4--/8--6-----6--8--6-----6--8---
D|----4-----------4------------6-----------6---------
A|---------------------------------------------------
E|---------------------------------------------------

   P.M.  .  .   .  .  .  .   .  .  .  .  .  .  .  .
E|---------------------------------------------------
B|---------------------------------------------------
G|-9-----9--11--9-----9--11--6-----6--8--6-----6--8--
D|----9------------9------------4-----------4--------
A|---------------------------------------------------
E|---------------------------------------------------

   P.M.  .  .  .  .  .  .  .  .  .  .  .  .  .  .
E|---------------------------------------------------
B|---------------------------------------------------
G|-4-----4--6--4-----4--6--3-----3--4--3-----3--4----
D|----2-----------2-----------4-----------4----------
A|---------------------------------------------------
E|---------------------------------------------------

(Riff 7)
E|----------0------------------------0---------------
B|-------0-----0------------------0-----0------------
G|----8-----------8-----8-----11-----------11-----11-
D|-6-----------------6-----8-------------------8-----
A|---------------------------------------------------
E|---------------------------------------------------

E|-----------0---------------------------0-----------
B|--------0-----0---------------------0-----0--------
G|----11-----------11-----11------13-----------13----
D|-9-------------------9------11---------------------
A|---------------------------------------------------
E|---------------------------------------------------

E|-------------------0-----------------------0-------
B|----------------0-----0-----------------0-----0----
G|------13-----4-----------4-----4-----3-----------3-
D|--11------2-----------------2-----4----------------
A|---------------------------------------------------
E|---------------------------------------------------

E|--------------0------------------------0-----------
B|-----------0-----0------------------0-----0--------
G|---3----9-----------9-----9-----11-----------11----
D|-4---6-----------------6-----8-------------------8-
A|---------------------------------------------------
E|---------------------------------------------------

E|---------------------------------------------------
B|---------------------------------------------------
G|-11------------------------------------------------
D|---------------------------------------------------
A|---------------------------------------------------
E|---------------------------------------------------

(Riff 8)
E|---------------------------------------------------
B|---------------------------------------------------
G|-4----4------4-4-----------4------4-4-----------4--
D|-4----4--------------------------------------------
A|-2--2----2-2-----2--2--2-2----2-2-----2--2--2-2----
E|---------------------------------------------------

E|---------------------------------------------------
B|-----------------------x--5--5--4------------------
G|-----4-4------------6--x--4--4--4------------------
D|--------------------4--x--2--2--2------------------
A|-2-2------2--2--2-2----x---------------------------
E|---------------------------------------------------

E|---------------------------------------------------
B|---------------------------------------------------
G|-4----4------4-4-----------4------4-4-----------4--
D|-4----4--------------------------------------------
A|-2--2----2-2-----2--2--2-2----2-2-----2--2--2-2----
E|---------------------------------------------------

E|---------------------------------------------------
B|---------------------------------------------------
G|-----4-4------------4------4-4---------------------
D|---------------------------------------------------
A|-2-2------2--2--2-2----2-2-----2-------------------
E|---------------------------------------------------

Solo 2:
E|---------------------------------------------------
B|---------------------------------------------------
G|-11\8---9--11-9/11\9--9----------------------------
D|--------------9/11\9--9----------9-11-13-13b14~r13-
A|-------------------------9-11-13-------------------
E|---------------------------------------------------

E|---------------------------------------------------
B|---------------------------------------------------
G|------------------------11h13p11-------------------
D|-9-9h11--~------11------11-------------------------
A|---------11h13------13-----------11h13-11h13\11p9--
E|---------------------------------------------------

E|---------------------------------------------------
B|---------------------------------------------------
G|---------------------------------------------------
D|--------9------------------------------------------
A|--------9~-----------------------------------------
E|--9h11---------------------------------------------

E|----------------------------------7-9-11-12--------
B|----------------------12---7-9-11-----------14b16--
G|-11\8--9-11-9~-------------------------------------
D|----------------9/11-------------------------------
A|---------------------------------------------------
E|---------------------------------------------------

(variação)
E|----------------------------------7-9-11-12--------
B|-----------------------12--7-9-11-----------14b16--
G|-9h11p9\8-9-11-9~----------------------------------
D|------------------9/11-----------------------------
A|---------------------------------------------------
E|---------------------------------------------------

E|----------------------------------16-19-16---------
B|-14--12h14p12\11--------12--16-19----------19-16---
G|-----------------13--11----------------------------
D|---------------------------------------------------
A|---------------------------------------------------
E|---------------------------------------------------

E|---------------------------------------------------
B|-------19-16---------------------------------------
G|-18-16-------18-16-------18-16---------------------
D|-------------------18-16-------18-16---------------
A|-------------------------------------18-16-17~~----
E|---------------------------------------------------

Quarta Parte:

(Riff 9)
E|-2---2--2-2-0--2---0--1--1--1-1-1--0---------------
B|-3---3--3-3-3--3---3--3--3--3-3-3--3---------------
G|-2---2--2-2-2--2---3--3--3--3-3-3--3---------------
D|-0---0--0-0-0--0---0--0--0--0-0-0--0---------------
A|---------------------------------------------------
E|---------------------------------------------------

(Adaptação)
E|---------------------------------------------------
B|---------------------------------------------------
G|-11--11--11-11--9--11---9---10---10---10-10-10--9--
D|-0---0---0--0---0--0----8---8----8----8--8--8---8--
A|---------------------------------------------------
E|---------------------------------------------------

E|--------------------------3--0---------------------
B|-8-8-8---7-7-7---10\8--5--3--3----------3--X-6\----
G|-7-7-7---7-7-7---9-\7--5--0--2----------3--X-5-----
D|-7-7-7---7-7-7---7-\5--5--0--0-------------X-------
A|-5-5-5---5-5-5------------2---------0-1----X-3-----
E|--------------------------3-----2-3----------------

E|---------------------------------------------------
B|-8-8-8---7-7-7---10\8--5---0-----------------------
G|-7-7-7---7-7-7---9-\7--5---0-----------------------
D|-7-7-7---7-7-7---7-\5--5---0-----------------------
A|-5-5-5---5-5-5-------------------------------------
E|---------------------------------------------------

E|-3-------------------------------------------------
B|-3--4---1-1-1---1-1-1------------------------------
G|-0--3---0-0-0---0-0-0-------3-------0-----0--------
D|-0--1---3-3-3---2-2-2------------------------------
A|-2--1---3-3-3---3-3-3--0h1------1h3----3-----------
E|-3-------------------------------------------------

(Adaptação)
E|-3-----3---------3---------------------------------
B|-3-----3---------3----------4----------4-----------
G|-0-----0---------0----------3----------3-----------
D|-0--------------------------1----------1-----------
A|-2-------------------------------------------------
E|-3—-3---3-3---3----3-3---3----3-3---3----3---------

E|---------------------------------------------------
B|------1---------1----------------------------------
G|-----------------------------0----------0----------
D|-0h3-----0-0h2-------------------------------------
A|---------------------0--0h1------1--1h3------------
E|---------------------------------------------------

Quinta Parte:

(Riff 10)

   H.A.  .  .  .  .  .  .  .  .  .
E|---------------------------------------------------
B|---------------------------------------------------
G|---------------------------------------------------
D|---------------------------------------------------
A|---------------------------------------------------
E|-3—-3--3--2--2--2--1--1--1--0--0-------------------

   H.A.  .  .  .  .  .  .  .  .
E|---------------------------------------------------
B|---------------------------------------------------
G|---------------------------------------------------
D|---------------------------------------------------
A|---------------------------------------------------
E|-3—-3--3--2--2--2--1--1--0--0----------------------

E|---------------------------------------------------
B|---------------------------------------------------
G|---------------------------------------------------
D|---------------------------------------------------
A|-10--10--10--9--9--9--8--8--8--7--7--10--10--10----
E|---------------------------------------------------

E|---------------------------------------------------
B|---------------------------------------------------
G|-------7---------------------------5--4------------
D|----7--------7--10--9-----------4--------7---5--4--
A|-9--------8-----------10--7--6---------------------
E|---------------------------------------------------

E|---------------------------------------------------
B|-------------------7--8----------------------------
G|-------------------------9--7----------------------
D|-5—-7--4--5-----9----------------------10--9h10p9--
A|-------------7-----------------9--12---------------
E|---------------------------------------------------

Passagem:
E|---------------------------------------------------
B|---------------------------------------------------
G|---------------------------------------------------
D|-12-10-9-----------10-9-7----------9-7-5-----------
A|---------12-10-9----------10-9-7---------9-7-5-----
E|---------------------------------------------------

E|---------------------------------------------------
B|---------------------------------------------------
G|---------------------------------------------------
D|-7-5-4-----------------------------------7-9----7--
A|-------7-5-3---10-8-7-------------7-8-10-----10----
E|----------------------10-8-7-8-10------------------

E|---------------------------------------------------
B|---------------------------------------------------
G|---------------------------------------------------
D|-9-10---------9-------9-10----9-10-12----------11--
A|------9-10-12---10-12------12---------11-12-14-----
E|---------------------------------------------------

E|---------------------------------------------------
B|---------------------------------------------------
G|-------------------------10------------------------
D|-------11-12----11-12-14---------------------------
A|-12-14-------14------------------------------------
E|---------------------------------------------------

(Riff 11)

E|---------------------------------------------------
B|---------------------------------------------------
G|-14--14p10--11p10----------------------------------
D|-------------------12--12p9--10p9------------------
A|----------------------------------11--11p8-9p8-----
E|---------------------------------------------------

E|---------------------------------------------------
B|---------------------------------------------------
G|--------------12--12p9--10p9-----------------------
D|-----------------------------10--10p7--8p7---------
A|---------------------------------------------------
E|-10—10p7--8---------------------------------------

E|---------------------------------------------------
B|---------------------------------------------------
G|-------------------------10--10p7--8p7-------------
D|----------------------------------------9--9p6-----
A|-9--9p5--6p5---------------------------------------
E|--------------8--8p5--7----------------------------

E|---------------------------------------------------
B|---------------------------------------------------
G|------------------------------9--9p5--5------------
D|-7p6-------------------------------------7--7p5----
A|------8--8p5--6p5----------------------------------
E|-------------------7--7p4--5-----------------------

E|---------------------------------------------------
B|---------------------------------------------------
G|---------------------------------------------------
D|-6p5-----------------------------------------------
A|-----7-7p4--4--------------------------------------
E|---------------5--5--3--3--------------------------

(Riff 12)

E|---------------------------------------------------
B|---------------------------------------------------
G|---------------------------------------------------
D|--------2--3--3/5----------------------------------
A|-----5---------------------------------------------
E|-1-------------------------------------------------

E|---------------------------------------------------
B|---------------------------------------------------
G|-----------------------------------------------5-7-
D|----------------------------3p0--7--9--5h9p5p0-----
A|-------2---4h5p4h...-------------------------------
E|-0—4----------------------------------------------

E|---------------------------------------------------
B|-5h6p5---5-----------------------------------------
G|-------7---5h7---4h5p4---4-------------------------
D|-----------------------7---5h7--2h3p2---2----------
A|--------------------------------------5----3--5----
E|---------------------------------------------------

E|---------------------------------------------------
B|---------------------------------------------------
G|---------------------------------------------------
D|---------------------------------------------------
A|-2h3p2----2----------------------------------------
E|--------5----3h5----0...--1...--3...--5...--6------

(Passagem)
E|---------------------------------------------------
B|---------------------------------------------------
G|---------------------------------------------------
D|---------------------------------------------------
A|-----------------------------------8---------8-10--
E|-6--8--10---8--10--12---8--10--12-----10-12--------

E|---------------------------------------------------
B|---------------------------------------------------
G|-------------------------9h10p9--------------------
D|-----8--10--12---10--12----------10----------------
A|-12----------------------------------10------------
E|---------------------------------------------------

E|---------------------------------------------------
B|---------------------------------------------------
G|----------------10-12-14-15-------------------12---
D|-14-12-10-12-14----------------15-14-12-14-15------
A|---------------------------------------------------
E|---------------------------------------------------

E|---------------------------------------------------
B|---------------------------------------------------
G|-14-15-17------------------------------------------
D|---------------------------------------------------
A|---------------------------------------------------
E|---------------------------------------------------

Solo 3:

E|---------------------------------------------------
B|---------------------------------------------------
G|----------------14-15-17-15-13-14------------------
D|-17-15-13-15-17--------------------17-15-13-15-17--
A|---------------------------------------------------
E|---------------------------------------------------

E|---------------------------------------------------
B|-13-15-17-15-13------------------------------------
G|---------------------------------------------------
D|-----------------17-15-13-15-17--------------------
A|---------------------------------------------------
E|---------------------------------------------------

E|---------------------------------------------------
B|---------------------------------------------------
G|-14-15-17-15-14----------------14-15-17-15-14------
D|---------------------------------------------------
A|----------------17-15-13-15-17---------------------
E|---------------------------------------------------

E|---------------------------------------------------
B|----------------------------------------------11---
G|----------------12-14-15-14-12---------------------
D|-15-14-12-14-15----------------15-14-12-14-15------
A|---------------------------------------------------
E|---------------------------------------------------

E|---------------------------------------------------
B|-13-15-13-11---------------------------------------
G|----------------------------12-14-15-14-12---------
D|-------------15-14-12-14-15------------------------
A|-------------------------------------------15-13---
E|---------------------------------------------------

E|---------------------------------------------------
B|---------------------------------------------------
G|----------12-14-15-14-12----------------10-12-14---
D|-------------------------14-12-10-12-14------------
A|-11-13-15------------------------------------------
E|---------------------------------------------------

E|---------------------------------------------------
B|---------------------------------------------------
G|-12-10------------------------------------------9--
D|----------------------------------12-10-9-10-12----
A|---------------------8-10-12-10-8------------------
E|-------12-10-8-10-12-------------------------------

E|---------------------12-13-15-13-12----------------
B|------------15-13-12-----------------13-12-10-12---
G|-10-12-10-9----------------------------------------
D|---------------------------------------------------
A|---------------------------------------------------
E|---------------------------------------------------

E|----10-12-13-12-10---------------------------------
B|-13----------------------------------------12-10---
G|-------------------------------7-9-10-9-7----------
D|-------------------10-9-7-9-10---------------------
A|---------------------------------------------------
E|---------------------------------------------------

E|---------8-10-12-10-8------------------------------
B|-9-10-12----------------------------------8-6-5-6--
G|--------------------------------5-7-9-7-5----------
D|----------------------9-7-6-7-9--------------------
A|---------------------------------------------------
E|---------------------------------------------------

E|---5-7-8-7-5---------------------------------------
B|-8-------------------------------------------------
G|-----------------------2-4-5-4-2-------------------
D|-------------5-3-2-3-5-----------5-3-2-------------
A|---------------------------------------------------
E|---------------------------------------5-3-1-3-5---

E|---------------------0-----------------------------
B|---------------------0-----------------------------
G|---------------------4-----------------------------
D|---------------------2-----------------------------
A|-2-3-5-3-------2-----2-----------------------------
E|---------5-3-1-0-----0-----------------------------

Parte Final:

(Riff 13)
   P.M.   . . .  .   . . . . .  .  . . .
E|---------------------------------------------------
B|---------------------------------------------------
G|---------------------------------------------------
D|-------------------------------------------2-------
A|-4--4---4-4-4--4---4-4-4-4-4--4--4-4-4-2-4---------
E|-2--2---2-2-2--2---2-2-2-2-2--2--2-2-2-------------

   P.M.    . . .  .   . . . . .  .    . . .
E|---------------------------------------------------
B|---------------------------------------------------
G|---------------------------------------------------
D|----------------------------------------------2----
A|-4--4----4-4-4--4---4-4-4-4-4--4----4-4-4-2-4------
E|-2—-2----2-2-2--2---2-2-2-2-2--2----2-2-2----------

   p.m.    . . .  .   . . . . .  .    . .
E|---------------------------------------------------
B|---------------------------------------------------
G|---------------------------------------------------
D|----------------------------------------2----------
A|-4--4----4-4-4--4---4-4-4-4-4--4----4-4-0---4--2---
E|-2—-2----2-2-2--2---2-2-2-2-2--2----2-2-----2--0---

E|---------------------------------------------------
B|---------------------------------------------------
G|---------------------------------------------------
D|---------------------------------------------------
A|-4--4----4-4-4--4---4-4-4-4-4--4----4-4------------
E|-2—-2----2-2-2--2---2-2-2-2-2--2----2-2------------

(Riff 1 - com variação)

   H.A.                 .                          .
E|---------------------------------------------------
B|---------------------------------------------------
G|---------------------------------------------------
D|---------------------------------------------------
A|-------------2--5--4---------------------4--7--6---
E|-2--3--4--5-----------3---0--4--5--6--7----------5-

   H.A.                   .                        .
E|---------------------------------------------------
B|---------------------------------------------------
G|---------------------------------------------------
D|---------------------------------------------------
A|---------------2--5--4--------------------4--7-6---
E|-0--2--3--4--5----------3---0--4--5--6--7--------5-

   H.A.                  .                      .
E|---------------------------------------------------
B|---------------------------------------------------
G|---------------------------------------------------
D|---------------------------------------------------
A|---------------2--5--4------------------4-7-6------
E|-0--2--3--4--5---------3--0--4--5--6--7-------5b~r~

E|---------------------------------------------------
B|---------------------------------------------------
G|---------------------------------------------------
D|---------------------------------------------------
A|---------------4-7-6-------------------------------
E|-0--4--5--6--7-------5-----------------------------

(Riff 2 - com variação)

E|---------------------------------------------------
B|---------------------------------------------------
G|---------------------------------------------------
D|----------9--8-----6------------7--6-----5---------
A|-7-----7--------7---------4--5--------------3------
E|----7------------------0--------------3--------1---

E|---------------------------------------------------
B|---------------------------------------------------
G|---------------------------------------------------
D|----------9--8----6---3--5--7---1--3--5------------
A|---7---7--------7-------------5---------3--3h4-3-2-
E|-0---7--------------0------------------------------

E|---------------------------------------------------
B|---------------------------------------------------
G|---------------------------------------------------
D|----------9--8-----6------------7--6-----5---------
A|-7-----7--------7---------4--5--------------3------
E|----7------------------0--------------3--------1---

E|---------------------------------------------------
B|---------------------------------------------------
G|---------------------------------------------------
D|----------9--8-----6-------------------------------
A|-7-----7--------7----------------------------------
E|----7----------------------------------------------

Solo Final:

E|-10--12--13------8--10--11-------------------------
B|-------------10------------8h10p8h...-15--15p11-11-
G|---------------------------------------------------
D|---------------------------------------------------
A|---------------------------------------------------
E|---------------------------------------------------

E|---------------------------------------------------
B|---------------------------------------------------
G|-14--14p10--10------------------------10/12--------
D|----------------12--12p8--8------------------------
A|-----------------------------12--12p8--------------
E|---------------------------------------------------

E|---------------------------------------------------
B|---------------------------------------------------
G|-12p10p8\7-10p8p7\5/7b8r7\5------------------------
D|----------------------------\5---5/7b8r7b8r7b8r7---
A|-------------------------------8-------------------
E|---------------------------------------------------

E|---------------------------------------------------
B|---------------------------------------------------
G|---------------------------------------------------
D|---------------------------------------------------
A|-8p5\3h5p3-----3h5p3~~-----------------------------
E|------------6--------------------------------------
Composição de Dream Theater / James LaBrie / John Myung / John Petrucci / Kevin Moore / Mike Portnoy
Colaboração e revisão:
  • João Nascimento
46.360 exibições
    • ½ Tom
    • A
    • Bb
    • B
    • C
    • Db
    • D
    • Eb
    • E
    • F
    • F#
    • G
    • Ab
  • Adicionar à lista

    0 comentários

    Ver todos os comentários
    00:00 / 00:00
    outros vídeos desta música
    repetir qualidade Automático
    Outros vídeos desta música
    00:00 / 00:00
    Automático
    Capítulos
    • Início
    • Tocando a música
    • Tocando Introdução e Primeira Parte
    • Configuração dos Efeitos
    • Ensinando Introdução e Primeira Parte - Riff 1
    • Ensinando Introdução e Primeira Parte - Riff 2
    • Ensinando Introdução e Primeira Parte - Riff 3
    • Tocando Solo 1
    • Ensinando Solo 1
    • Tocando Segunda Parte
    • Ensinando Segunda Parte - Riff 4
    • Ensinando Segunda Parte - Riff 5
    • Tocando Terceira Parte
    • Ensinando Terceira Parte - Riff 6
    • Ensinando Terceira Parte - Riff 7
    • Ensinando Terceira Parte - Riff 8
    • Tocando Solo 2
    • Ensinando Solo 2
    • Tocando Quarta Parte
    • Ensinando Quarta Parte - Riff 9
    • Tocando Quinta Parte
    • Ensinando Quinta Parte - Riff 10
    • Ensinando Quinta Parte - Passagem
    • Ensinando Quinta Parte - Riff 11
    • Ensinando Quinta Parte - Riff 12
    • Tocando Passagem 2 e Solo 3
    • Ensinando Passagem 2
    • Ensinando Solo 3
    • Tocando Final
    • Ensinando Final - Riff 13
    • Ensinando Solo Final
    • Encerramento

    Cifra Club Pro

    Aproveite o Cifra Club com benefícios exclusivos e sem anúncios
    Cifra Club Pro
    Aproveite o Cifra Club com benefícios exclusivos e sem anúncios
    OK