Cifra Club

City Of Sin

Escape The Fate

Cifra: Principal (violão e guitarra)
tom: F (forma dos acordes no tom de G) Afinação: D G C F A D
Intro:
Lead
D|-----------------------|
A|-----------------------|
F|-----------------------|
C|-----------------------|
G|----------4------------|
C|-4--7--4-----4--7--3-3-|

Rhythm
D|-----------------------|
A|-----------------------|
F|-----------------------|
C|-----------------------|
G|----------4------------|
C|-4--7--4-----4--7--3-3-|

Lead
D|-------------------------|
A|-------------------------|
F|----------18-------------|
C|-16-19-16----16-18-15-15-|
G|-------------------------|
C|-------------------------|

Lead
D|-------------------------|
A|-------------------------|
F|----------18-------------|
C|-16-19-16----16-18-15-15-|
G|-------------------------|
C|-------------------------|

Rhythm
D|-------------------------|
A|-------------------------|
F|----------18-------------|
C|-16-19-16----16-18-15-15-|
G|-------------------------|
C|-------------------------|

Verso 1:
Lead
D|-------------------------|
A|-------------------------|
F|----------18-------------|
C|-16-19-16----16-18-15-15-|
G|-------------------------|
C|-------------------------|

D|-----------------------------|
A|-----------------------------|
F|--------------18-------------|
C|-///-16-19-16----16-18-15-15-|
G|-///-------------------------|
C|-///-------------------------|

Pre-Refrão:
Lead
D|-----------------------------------------|
A|-----------------------------------------|
F|------------------5-4-----7-5-3----------|
C|-----12-10-8-10-2-----5-2--------XXXXXXX-|
G|---------------------------------XXXXXXX-|
C|-14------------------------------XXXXXXX-|

Refrão:
Rhythm
D|--------------------------------------------------------------------------|
A|--------------------------------------------------------------------------|
F|--------------------------------------------------------------------------|
C|-4--4-7-4--2--2-2-4--4--4-7-4--2--2-2-{4}---4--4-7-4--2--2-2-4-3-2222222-3|
G|-4--4-7-4--2--2-2-4--4--4-7-4--2--2-2-------4--4-7-4--2--2-2-4-3-2222222-3|
C|-4--4-7-4--2--2-2-4--4--4-7-4--2--2-2-------4--4-7-4--2--2-2-4-3-2222222-3|
                                                                   *******
Pós-Refrão:
Lead
D|-------------------------|
A|-------------------------|
F|----------18-------------|
C|-16-19-16----16-18-15-15-|
G|-------------------------|
C|-------------------------|

Verse 2:
Lead
D|-------------------------|
A|-------------------------|
F|----------18-------------|
C|-16-19-16----16-18-15-15-|
G|-------------------------|
C|-------------------------|

D|-----------------------------|
A|-----------------------------|
F|--------------18-------------|
C|-///-16-19-16----16-18-15-15-|
G|-///-------------------------|
C|-///-------------------------|

Pre-Refrão:
Lead
D|-----------------------------------------|
A|-----------------------------------------|
F|------------------5-4-----7-5-3----------|
C|-----12-10-8-10-2-----5-2--------XXXXXXX-|
G|---------------------------------XXXXXXX-|
C|-14------------------------------XXXXXXX-|

Refrão:
Rhythm
D|--------------------------------------------------------------------------|
A|--------------------------------------------------------------------------|
F|--------------------------------------------------------------------------|
C|-4--4-7-4--2--2-2-4--4--4-7-4--2--2-2-{4}---4--4-7-4--2--2-2-4-3-2222222-3|
G|-4--4-7-4--2--2-2-4--4--4-7-4--2--2-2-------4--4-7-4--2--2-2-4-3-2222222-3|
C|-4--4-7-4--2--2-2-4--4--4-7-4--2--2-2-------4--4-7-4--2--2-2-4-3-2222222-3|
                                                                   *******
Pre-Solo:
Lead
D|-----------------------|
A|------------19d--------|
F|-----19w~~~------------|
C|-16d-------------------|
G|-----------------------|
C|----------------7h9-4d-|

Solo:
Lead
D|--------------------------------------------|
A|-----------------22-21-19-------------------|
F|----------16h18-----------21-19-------------|
C|-16-18-19-----------------------22-19h21b22-|
G|--------------------------------------------|
C|--------------------------------------------|

D|--------------------------------------------------|
A|-----------------14-16-14-16-17-18b20-18p17p16h17-|
F|---------14-16-17---------------------------------|
C|-14-16-17-----------------------------------------|
G|--------------------------------------------------|
C|--------------------------------------------------|

D|--------------------------------------|
A|------19--19-19b21-19b21-17-19--22-21-|
F|------------------------------18------|
C|--------------------------------------|
G|--------------------------------------|
C|--------------------------------------|

D|--------------------------------------------|
A|-22-21-19--------------------------------19-|
F|---------21-19-18---------18-19-21-19-21----|
C|-----------------21-19-21-------------------|
G|--------------------------------------------|
C|--------------------------------------------|

Rhythm
D|--------------------------------------------------------------------------|
A|--------------------------------------------------------------------------|
F|--------------------------------------------------------------------------|
C|-4--4-7-4--2--2-2-4--4--4-7-4--2--2-2-{4}---4--4-7-4--2--2-2-4-3-2222222-3|
G|-4--4-7-4--2--2-2-4--4--4-7-4--2--2-2-------4--4-7-4--2--2-2-4-3-2222222-3|
C|-4--4-7-4--2--2-2-4--4--4-7-4--2--2-2-------4--4-7-4--2--2-2-4-3-2222222-3|
                                                                   *******
Rythm
E|--------------------------------|
B|--------------------------------|
G|--------------------------------|
D|--------------------------------|
A|-21-20-21-20-21--21-20-21-20-21-|
D|--------------------------------|

Refrão:
Rhythm
D|--------------------------------------------------------------------------|
A|--------------------------------------------------------------------------|
F|--------------------------------------------------------------------------|
C|-4--4-7-4--2--2-2-4--4--4-7-4--2--2-2-{4}---4--4-7-4--2--2-2-4-3-2222222-3|
G|-4--4-7-4--2--2-2-4--4--4-7-4--2--2-2-------4--4-7-4--2--2-2-4-3-2222222-3|
C|-4--4-7-4--2--2-2-4--4--4-7-4--2--2-2-------4--4-7-4--2--2-2-4-3-2222222-3|

Outro:
Lead
D|---------------------------------------------------|
A|---------------------------------------------------|
F|---------------------------------------------------|
C|---------------------------------------------------|
G|-21-20-21-20-21-20-21--21-20-21-20-21--20-20-23-21-|
C|---------------------------------------------------|
Composição de Craig Mabbitt / Max Green / Michael Money / Monte Money / Robert Ortiz
Colaboração e revisão:
  • Banda
504 exibições
    • ½ Tom
    • A
    • Bb
    • B
    • C
    • Db
    • D
    • Eb
    • E
    • F
    • F#
    • G
    • Ab
  • Adicionar à lista

    0 comentários

    Ver todos os comentários

    Conseguiu tocar?

    0 Tocaram 0 Ainda não

    Grave um vídeo tocando City Of Sin e nos envie!

    00:00 / 00:00
    Outros vídeos desta música
    Repetir Qualidade Automático
    Outros vídeos desta música
    00:00 / 00:00
    Automático

    Cifra Club Pro

    Aproveite o Cifra Club com benefícios exclusivos e sem anúncios
    Cifra Club Pro
    Aproveite o Cifra Club com benefícios exclusivos e sem anúncios
    OK