Cifra Club

Guillotine Solo

Escape The Fate

Cifra: Principal (violão e guitarra)
tom: G
The Guillotine solo

I dont kno if it's right just try it out.








D|-12-------------------12b-12---16-17-19--16-17--------------------|
A|-14b---12--------14b----------------------------17----------------|
F|-----------14-13-----------------------------------16-14--9--4----|
C|----------------------------------------------------------------2-|
G|------------------------------------------------------------------|
C|------------------------------------------------------------------|

D|---------------------------------------------------------|
A|---------------------------------------------------------|
F|------------------------------7-7-9-9-11-11--------------|
C|-7-7-9-9-11-11--7-7-9-9-11-11----------------------------|
G|---------------------------------------------------------|
C|---------------------------------------------------------|

D|---------------------------------------------------------|
A|---------------------------------------------------------|
F|------------------------------7-7-9-9-11-11/13-----------|
C|-7-7-9-9-11-11--7-7-9-9-11-11----------------------------|
G|---------------------------------------------------------|
C|---------------------------------------------------------|

D|---------------------------------------------------------|
A|---------------------------------------------------------|
F|------------------------------7-7-9-9-11-11/13/14--------|
C|-7-7-9-9-11-11--7-7-9-9-11-11----------------------------|
G|---------------------------------------------------------|
C|---------------------------------------------------------|

D|-------------------------------------17--16--------------|
A|-9-10-12-9-10-12--12b-10b---12b-10---19b-18b-------------|
F|---------------------------------------------------------|
C|---------------------------------------------------------|
G|---------------------------------------------------------|
C|---------------------------------------------------------|
Compositor não encontrado.
2.971 exibições
    • ½ Tom
    • A
    • Bb
    • B
    • C
    • Db
    • D
    • Eb
    • E
    • F
    • F#
    • G
    • Ab
  • Adicionar à lista

    0 comentários

    Ver todos os comentários

    Conseguiu tocar?

    1 Tocaram 0 Ainda não

    Grave um vídeo tocando Guillotine Solo e nos envie!

    00:00 / 00:00
    Outros vídeos desta música
    Repetir Qualidade Automático
    Outros vídeos desta música
    00:00 / 00:00
    Automático

    Cifra Club Pro

    Aproveite o Cifra Club com benefícios exclusivos e sem anúncios
    Cifra Club Pro
    Aproveite o Cifra Club com benefícios exclusivos e sem anúncios
    OK