Cifra Club

Aprenda

Tobacco Island Intro

Flogging Molly

Cifra: Principal (violão e guitarra)
Tom: A#
Tabbed By: Dylan Browne *

Chorus
   Bb                    Gm
E---------------------------------------------|
B--6-66666-6-66666-6-----3-33333-3-3333-3-----|
G--7-77777-7-77777-7-----3-33333-3-3333-3-----|
D--8-88888-8-88888-8-x2--5-55555-5-5555-5-x2--|
A--8-88888-8-88888-8-----5-55555-5-5555-5-----|
E--6-66666-6-66666-6-----3-33333-3-3333-3-----|

Main Melody
E----------------------------10--10-8-10-13-10-13--|
B--------11--11-10-11--11-10-----------------------|
G--10-12-------------------------------------------|
D--------------------------------------------------|
A--------------------------------------------------|
E--------------------------------------------------|

E-15--13----15--13-----11-10-8-----------|
B--------15--------15----------11-8-11---|
G----------------------------------------|
D----------------------------------------|
A----------------------------------------|
E----------------------------------------|

E----------------------------10--10-8-10-13-10-13--|
B--------11--11-10-11--11-10-----------------------|
G--10-12-------------------------------------------|
D--------------------------------------------------|
A--------------------------------------------------|
E--------------------------------------------------|

E-15--13----15--13----------------------|
B--------15--------15-13-11-13-15-13-11-|
G---------------------------------------|
D---------------------------------------|
A---------------------------------------|
E---------------------------------------|

Verse Chords
Gm, Bb, Gm, Bb, F, Am

Just Listen to it for changes and rhythms
Ill finish the whole thing soon but I thought an intro tab would be good for a start

336 exibições
    • ½ Tom
    • A
    • Bb
    • B
    • C
    • Db
    • D
    • Eb
    • E
    • F
    • F#
    • G
    • Ab
  • Adicionar à lista

    0 comentários

    Mostrar mais comentários

    Conseguiu tocar?

    0 Tocaram 0 Ainda não

    Grave um vídeo tocando Tobacco Island Intro e mande pra gente!

    00:00 / 00:00
    outros vídeos desta música
    repetir qualidade Automático
    Outros vídeos desta música
    00:00 / 00:00
    Automático

    Cifra Club Pro

    Aproveite o Cifra Club com benefícios exclusivos e sem anúncios
    7 dias grátis
    Cifra Club Pro
    Aproveite o Cifra Club com benefícios exclusivos e sem anúncios
    7 dias grátis
    OK