Cifra Club

Aprenda

Dê Rolé Na Caminhonete

Forró Boys

Cifra: Principal (violão e guitarra)
tom: Bb
Intro: Eb Bb

Solo Inicial:
E|------10--10--10---8---6---4--3-----|
B|------11--11--11---9---8---6--4-----|
G|------------------------------------|
D|------------------------------------|
A|------------------------------------|
E|------------------------------------|

E|---------------------------------------------------------------------|
B|---------------------------------------------------------------------|
G|----3--3--3--3-----3--3--3--3---3------------------------------------|
D|----------------1---------------3---------------------------1--------|
A|--------------------------------1-----0h1--1--1--0h1--1--1-----------|
E|---------------------------------------------------------------------| Repete este solo 3x

E|---------------------------------------------------------------------|
B|---------------------------------------------------------------------|
G|----3--3--3--3-----3--3--3--3---3-----3--1--0------------------------|
D|----------------1---------------3--------------3--1------------------|
A|--------------------------------1------------------------------------|
E|---------------------------------------------------------------------|

Eb               Bb
Eu tinha uma mobilete
                    Eb
Vendi comprei um Chevette
                   Bb
Mais não pegava ninguém
                 Eb
Muito menos piriguete
                Bb
Juntei uma boa grana
                   Eb
Com a venda de chiclete
                    Bb
Vendi tudo que eu tinha
                   Eb
Inclusive o meu chevette
                    Bb
Fui lá na concessionária
                Eb
Uma tal de chevrolet
                    Bb
Dei logo uma boa entrada
                     Eb
E comprei uma caminhonete
                           Bb
Vem, vem da rolê na caminhonete
                                 Eb
A traseira dela ta cheia de piriguete
                           Bb
Vem, vem da rolê na caminhonete
                                 Bb
Na sonzeira dela todo mundo enlouquece
Composição de Forro Boys / Roger
Colaboração e revisão:
  • Gabriel
6.253 exibições
    • ½ Tom
    • A
    • Bb
    • B
    • C
    • Db
    • D
    • Eb
    • E
    • F
    • F#
    • G
    • Ab
  • Adicionar à lista

    0 comentários

    Ver todos os comentários

    Conseguiu tocar?

    1 Tocaram 0 Ainda não

    Grave um vídeo tocando Dê Rolé Na Caminhonete e nos envie!

    00:00 / 00:00
    Outros vídeos desta música
    Repetir Qualidade Automático
    Outros vídeos desta música
    00:00 / 00:00
    Automático

    Cifra Club Pro

    Aproveite o Cifra Club com benefícios exclusivos e sem anúncios
    Cifra Club Pro
    Aproveite o Cifra Club com benefícios exclusivos e sem anúncios
    OK