Cifra Club

Avante

Gabriela Gomes

Cifra: Principal (violão e guitarra)
tom: Dm
[Intro] Bb7M  A7  Bb7M  A7

[Tab - Dedilhado Intro]

[Parte 1 De 2]
   Bb7M                A7  
E|----------------------------------------------|
B|----------------------------------------------|
G|-----------------------------------6-6--------|
D|---5h7-5---------------5h7-5-------5-5--------|
A|-5-------8-5-0-5-8-8-5-------8-5--------------|
E|---------------6-6-6-------------8-5-5--------|

[Parte 2 de 2]

   Bb7M                A7  
E|----------------------------------------------|
B|----------------------------------------------|
G|-----------------------------------6-6--------|
D|---5h7-5---------------5h7-5-------5-5--------|
A|-5-------8-5-0-5-8-8-5-------8-5--------------|
E|---------------6-6-6-------------8-5-5--------|

[Primeira Parte]

 Dm7(9)
Eu desci a terra e venci o mundo

    G7(13)
Fiz tudo isso pra te salvar

Dm7(9)
Eu fui humilhado, e fui açoitado

    A7
Dei minha vida em teu lugar

Dm7(9)                    G7(13)
Mas por que então, está a chorar o filho meu?

     Bb7M                       A7(13-)
Essa guerra não é tua, estou contigo

[Refrão]

 Bb7M         Am7                Gm7 
Avante, avance, clame busque, eu sou contigo

F7M               Dm7(9)   G7(13)       Bb7M
Não tema o perigo não,     o perigo não

          A7(13-)
Estou contigo
 Dm7(9)     G7(13)               Bb7M   
Avante, avance, clame busque, eu sou contigo

Am7               Gm7  F7M
Não tema o perigo não, o perigo não

Em7(5-)  A7(13-)
Estou contigo

[Tab - Dedilhado Intro]

[Parte 1 De 2]

   Bb7M                A7  
E|----------------------------------------------|
B|----------------------------------------------|
G|-----------------------------------6-6--------|
D|---5h7-5---------------5h7-5-------5-5--------|
A|-5-------8-5-0-5-8-8-5-------8-5--------------|
E|---------------6-6-6-------------8-5-5--------|

[Parte 2 de 2]

   Bb7M                A7  
E|----------------------------------------------|
B|----------------------------------------------|
G|-----------------------------------6-6--------|
D|---5h7-5---------------5h7-5-------5-5--------|
A|-5-------8-5-0-5-8-8-5-------8-5--------------|
E|---------------6-6-6-------------8-5-5--------|

[Segunda Parte]

Dm7(9)
Eu sou, aquele que parou o sol

G7(13)
Eu sou, aquele que abriu o mar

Bb7M
Eu estava lá quando tudo começou

A7(13-)
E sou aquele que as estrelas adoram

E|----------------------|
B|---------------6~-----|
G|-7-----7-----7----7---|
D|---5h7---5h7----------|
A|----------------------|
E|----------------------|

[Refrão]

Bb7M         Am7                 Gm7 
Avante, avance, clame busque, eu sou contigo

F7M               Dm7(9)   G7(13)       Bb7M
Não tema o perigo não,     o perigo não

         A7(13-)
Estou contigo

 Dm7(9)  G7(13)                  Bb7M   
Avante, avance, clame busque, eu sou contigo

Am7               Gm7  F7M
Não tema o perigo não, o perigo não

Em7(5-)  A7(13-)

[Ponte]
    D#7M           C#7M   Bb7    Dm7(9) G7(13)
Não temas sou, teu Deus e te sustento

     Gm7     F7M  Em7(5-)  Dm7(9)  Bb7M  C
Seja forte e cora-joso     estou  aqui

            D#7M       C#7M  Bb7  Dm7(9) G7(13)
Ainda que a noite seja mui - to   longa

     Gm7    F7M  Em7(5-)  Dm7(9)  Bb7M  A7(13-)
O amanhã vira, e é       logo     ali

[Refrão]

Bb7M         Am7                Gm7 
Avante, avance, clame busque, eu sou contigo

F7M               Dm7(9)   G7(13)       Bb7M
Não tema o perigo não,     o perigo não

          A7(13-)
Estou contigo
 Dm7(9)  G7(13)                  Bb7M   
Avante, avance, clame busque, eu sou contigo

Am7               Gm7  F7M
Não tema o perigo não, o perigo não

Em7(5-)  A7(13-)
Estou contigo

Dm7(9)  G7(13)                  Bb7M   
Avante, avance, clame busque, eu sou contigo

Am7               Gm7  F7M       Em7(5-)  D#7M           
Não tema o perigo não,      o perigo      não
00:00 / 00:00
Outros vídeos desta música
Repetir
Outros vídeos desta música
Compositor não encontrado.
Colaboração e revisão:
  • Gabriel Rocha
18 exibições
    • ½ Tom
    • Am
    • Bbm
    • Bm
    • Cm
    • C#m
    • Dm
    • Ebm
    • Em
    • Fm
    • F#m
    • Gm
    • G#m
  • Adicionar à lista

    0 comentários

    Ver todos os comentários

    Conseguiu tocar?

    0 Tocaram 0 Ainda não

    Grave um vídeo tocando Avante e nos envie!

    Entre para oCifra Club PRO

    Tenha acesso a benefícios exclusivos no App e no Site

    • Chega de anúncios

    • Prioridade de compra em lançamentos

    • Mais recursos no app do Afinador

    • Atendimento Prioritário

    • Descontos nos produtos Cifra Club

    • Ajude a produzir mais conteúdo

    00:00 / 00:00

    Cifra Club Pro

    Aproveite o Cifra Club com benefícios exclusivos e sem anúncios
    Cifra Club Pro
    Aproveite o Cifra Club com benefícios exclusivos e sem anúncios
    OK