Cifra Club

Tô de saco cheio

Garotos da Rua

Cifra: Principal (violão e guitarra)
Tom: D
-> Penta de Bm7
 
Intro:
  A                D                    A  4X          D
|---------------------------------------|----|---------------------- --|
|---------------------------------------|--10|-------------------- ----|
|------9----------7---------------------|11--|11-9-9--7--------- ------|
|-7--9^-9^-9^-7-9-7---7---9^-7---7^-----|----|--------7--7--9^ -7--7-9^|
|-7-----------------9---9------9---9-7--|----|------9---9-9- ----9-----|
|---------------------------------------|----|------------ ------------|
 
Solo da Introdução:
|-------------12-------12----------------------------- -------12-|
|--10--10--12^--12^-12^--12^--10-12-10-----------------10- 12^---|
|----11--11-------11--------11---------11-9--------9-11------- --|
|------------------------------------------11-9^-11-------------|< BR>|0--------------------------------------------------------------|
| ---------------------------------------------------------------| 
 
|-/12-12-12-/12-12-12-10---------------------|
|-/12-12-12-/1 2-12-12-10---10-12-10----10-12-|
|-----------------------------------1 1-------|
|--------------------------------------------|
|--------- -----------------------------------|
|-------------------------------- ------------|
 
|---14p12----12h14p12----12h14~-----14----17^-17^-17~|
|-12-- ----14----------14--------------14-------------|
|-------------------- --------------------------------|
|----------------------------------- -----------------|
|-------------------------------------------------- --|
|----------------------------------------------------|
 

(A D)
Lá em casa continuam
os mesmos problemas
Lá em casa continuam
me perturbando
Lá em casa continuam
enchendo o saco
 
(A D)
Se metem na minha vida não dão folga o dia inteiro
Tão sempre reclamando de dinheiro
Não posso banho demorado
nem ficar cantando no chuveiro
 
(A D)
Lá em casa continuam
os mesmos problemas
Lá em casa continuam
me perturbando
Lá em casa continuam
enchendo o saco
 
(A D)
não deixam escutar o som mais alto
os coroas não querem mudar
Ficam me cobrando profissão bem suscedida
pra me fazer seguro de vida
 
(A D)
Lá em casa continuam
os mesmos problemas
Lá em casa continuam
me perturbando
Lá em casa continuam
enchendo o saco
 
solo
 
Lá em casa continuam
os mesmos problemas
Lá em casa continuam
me perturbando
Lá em casa continuam
enchendo o saco
 
(A D)
a todo momento tem um bico no meu quarto
é roupa cabelo, as más companias
querem que eu guarde economia na poupança
porque que eu tenho que ser um rapaz de familia
 
(A D)
Lá em casa continuam
os mesmos problemas
Lá em casa continuam
me perturbando
Lá em casa continuam
enchendo o saco
exibições 37.432
Acordes para:
    Composição: Bebeco Garcia

    0 comentários

    mostrar mais comentários

    Conseguiu tocar?

    4 tocaram 0 ainda não

    Grave um vídeo tocando Tô de saco cheio e mande pra gente!

    00:00 / 00:00
    outros vídeos desta música
    repetir qualidade Automático
    Outros vídeos desta música
    00:00 / 00:00
    Automático
    OK