Cifra Club

Eu Só Quero Um Xodó

Gilberto Gil

Cifra: Principal (violão e guitarra)
tom: F
[Intro] F7(9)  Bb7(13)  F7(9)  C7(13)

[Tab - Improviso]

[Parte 1 De 3]
   F7              Bb7(13)       F7 
E|------------------------------------------|
B|----------------------8-------------------|
G|---x----------0---------7---7-----8~----0-|
D|---x-x-7----0----6----------6-----7~--0---|
A|-8--------8--------------------8--8~------|
E|-------------------6------6---------------|

[Parte 2 De 3]
   C7(13)      F7              H.N. Bb7(13)
E|------------------------------------------|
B|----10---------0---------------9--8----0--|
G|-9-----9---------8--8~---------9--7----0--|
D|-8---------8--------7~----0----9--6--0----|
A|-------------8------8~--8-----------------|
E|-8-------8-------------------6----6-------|

Parte 3 de 3
   F7           C7(13)
E|------------------------------------------|
B|----0-----------10------------------------|
G|------8---------9------9------------------|
D|----------7-----8------8------------------|
A|-8------8---------------------------------|
E|--------------8------8--------------------|


( F7(9)  Bb7(13)  F7(9)  C7(13) )
( F7(9)  Bb7(13)  F7(9)  C7(13) )
( F7(9)  Bb7(13)  F7(9)  C7(13) )
( F7(9)  Bb7(13)  F7(9)  C7(13) )
( F7(9) )

[Primeira Parte]

     F              Dm7   Am7
Que falta eu sinto de um bem
     Bb2         C7    F  C7
Que falta me faz um xodó
     F           Dm7       Am7
Mas como eu não tenho ninguém
    Bb2           C7      F
Eu levo a vida assim tão só

[Segunda Parte]

        Cm7      F7(9)
Eu só quero um amor
      Cm7           G7
Que acabe o meu sofrer
      Dm7    Gm7
Um xodó pra mim
        Dm7     Gm7
Do meu jeito assim
      Bb2      C7   F
Que alegre o meu viver

( F  Bb7  F  C7 )
( F  Bb7  F  C7 )
( F  Bb7  F  C7 )
( F  Bb7  F  C7 )
( F )

[Primeira Parte]

     F              Dm7   Am7
Que falta eu sinto de um bem
     Bb2         C7    F  C7
Que falta me faz um xodó
     F           Dm7       Am7
Mas como eu não tenho ninguém
    Bb2           C7      F
Eu levo a vida assim tão só

[Segunda Parte]

        Cm7      F7(9)
Eu só quero um amor
      Cm7           G7
Que acabe o meu sofrer
      Dm7    Gm7
Um xodó pra mim
        Dm7     Gm7
Do meu jeito assim
      Bb2      C7   F
Que alegre o meu viver

( F  Bb7  F  C7 )
( F  Bb7  F  C7 )
( F  Bb7  F  C7 )
( F  Bb7  F  C7 )
( F )

[Solo] F  Dm7  Am7  
       Bb2  C7  F  C7
       F  Dm7  Am7  
       Bb2  C7  
       F7(9)  Cm7  F7(9)  Cm7
       G7  Dm7  G7  Dm7  G7  Bb2  C7

[Tab - Base Solo]

[Parte 1 De 6]
   F7(9)
E|------------------------------------------|
B|---8----8------8------8-------------------|
G|---8----8------8------8-------------------|
D|---7----7------7------7-------------------|
A|-8----8---8--8---8--8---8-----------------|
E|------------------------------------------|

Parte 2 de 6
   Cm7
E|------------------------------------------|
B|---8------8------8------8-----------------|
G|---8------8------8------8-----------------|
D|---8------8------8------8-----------------|
A|------------------------------------------|
E|-8---8--8---8--8---8--8---8---------------|

Parte 3 de 6
   F7(9)
E|------------------------------------------|
B|---8-8-8----8-8-8-----8-8-----------------|
G|---8-8-8----8-8-8-----8-8-----------------|
D|---7-7-7----7-7-7-----7-7-----------------|
A|-8--------8---------8---------------------|
E|------------------------------------------|
Parte 4 de 6
   Cm7
E|------------------------------------------|
B|---8-8-----8-8----8-8----8-8--------------|
G|---8-8-----8-8----8-8----8-8--------------|
D|---8-8-----8-8----8-8----8-8--------------|
A|------------------------------------------|
E|-8------8-------8------8------------------|
Parte 5 de 6
   G7
E|------------------------------------------|
B|---6-6-6----6-6-6------6-6----------------|
G|---4-4-4----4-4-4------4-4----------------|
D|---3-3-3----3-3-3------3-3----------------|
A|------------------------------------------|
E|-3--------3---------3---------------------|

Parte 6 de 6
   Dm7           G7
E|---1--1--1-1-----3------3-----------------|
B|---1--1--1-1-----3------3-----------------|
G|---2--2--2-2-----3------3-----------------|
D|-0----------------------------------------|
A|------------------------------------------|
E|---------------3---3--3---3---------------|

Parte 6 de 6
   Dm7           G7
E|---1--1--1-1-----3------3-----------------|
B|---1--1--1-1-----3------3-----------------|
G|---2--2--2-2-----3------3-----------------|
D|-0----------------------------------------|
A|------------------------------------------|
E|---------------3---3--3---3---------------|

( F  Bb7  F  C7 )
( F  Bb7  F  C7 )
( F  Bb7  F  C7 )
( F  Bb7  F  C7 )
( F )

[Primeira Parte]

     F              Dm7   Am7
Que falta eu sinto de um bem
     Bb2         C7    F  C7
Que falta me faz um xodó
     F           Dm7       Am7
Mas como eu não tenho ninguém
    Bb2           C7      F
Eu levo a vida assim tão só

[Segunda Parte]

        Cm7      F7(9)
Eu só quero um amor
      Cm7           G7
Que acabe o meu sofrer
      Dm7    Gm7
Um xodó pra mim
        Dm7     Gm7
Do meu jeito assim
      Bb2      C7   F
Que alegre o meu viver

[Final] F  Bb7  F  C7
        F  Bb7  F  C7
        F  Bb7  F  C7
        F  Bb7  F  C7
        F
00:00 / 00:00
Outros vídeos desta música
Repetir
Outros vídeos desta música
Composição de Dominguinhos
Colaboração e revisão:
  • Lucas Kappaun
172.504 exibições
  • Simplificar cifra
    • ½ Tom
    • A
    • Bb
    • B
    • C
    • Db
    • D
    • Eb
    • E
    • F
    • F#
    • G
    • Ab
  • Adicionar à lista

    0 comentários

    Ver todos os comentários

    Conseguiu tocar?

    13 Tocaram 4 Ainda não

    Grave um vídeo tocando Eu Só Quero Um Xodó e nos envie!

    Entre para oCifra Club PRO

    Tenha acesso a benefícios exclusivos no App e no Site

    • Chega de anúncios

    • Prioridade de compra em lançamentos

    • Mais recursos no app do Afinador

    • Atendimento Prioritário

    • Descontos nos produtos Cifra Club

    • Ajude a produzir mais conteúdo

    00:00 / 00:00
    Capítulos
    • Tocando a Música
    • Apresentação / Equipamentos
    • Acordes da Improviso
    • Tocando Improviso
    • Ensinando Improviso - Parte 1 de 3
    • Ensinando Improviso - Parte 2 de 3
    • Ensinando Improviso - Parte 3 de 3
    • Acorde da Introdução
    • Tocando Introdução
    • Ensinando Introdução
    • Acordes da Primeira Parte
    • Tocando a Primeira Parte
    • Acordes da Segunda Parte
    • Tocando Segunda Parte
    • Acorde do Interlúdio
    • Tocando Interlúdio
    • Tocando Solo
    • Ensinando Solo
    • Ensinando Solo - Parte 1 de 6
    • Ensinando Solo - Parte 2 de 6
    • Ensinando Solo - Parte 3 de 6
    • Ensinando Solo - Parte 4 de 6
    • Ensinando Solo - Parte 5 de 6
    • Ensinando Solo - Parte 6 de 6
    • Encerramento

    Cifra Club Pro

    Aproveite o Cifra Club com benefícios exclusivos e sem anúncios
    Cifra Club Pro
    Aproveite o Cifra Club com benefícios exclusivos e sem anúncios
    OK