Cifra Club

60 Segundos

Gusttavo Lima

Cifra: Principal (violão e guitarra)
tom: E
[Intro] E  A9  C#m7  B9  A

E|----------------------------------------------------|
B|---------6p5------------------8h10/11\10p8----------|
G|-------------5-5/7----------------------------------|
D|------7---------------------------------------------|
A|-/8-8-----------------------------------------------|
E|----------------------------------------------------|

E|----------------------------------------------------|
B|-----6-8-10-11-10-8-6\5---------6p5-----------------|
G|-5/7--------------------7~----------5-5/7----5h7-5~-|
D|----------------------------------------------------|
A|----------------------------------------------------|
E|----------------------------------------------------|

E|----------------------------------------------------|
B|-----6-8-10-11-10-10h11p10p8-6\5-8/13~--------------|
G|-5/7------------------------------------------------|
D|----------------------------------------------------|
A|----------------------------------------------------|
E|----------------------------------------------------|
          
[Primeira Parte] 

            E             A9
Me dê um Minuto pra falar
           C#m7      B9      A9
Que eu preciso de você Meu Amor
      E              A9
59 segundos é o que resta
          C#m7        B9              E
Pra entender essa paixão no meu peito

        A9
Cada segundo que se passa
        A9/B
Mais aumenta essa vontade
        G#m
Esse desejo
         C#m
Essa Paixão

[Pré-Refrão] 

          A9
Que me Domina, me fascina
       A9/B                F#m7
O Teu jeito de menina tão linda
            E              B9
Você enlouquece o meu coração
              A9                B9
Você sabe que eu estou em suas mãos

[Refrão] 

                  E    
O Tempo passa depressa 
                    B9
quando estou com Você
                  C#m7 
As horas viram minutos 
                  G#m7
não consigo entender
                           A
E o que eu mais quero é viver ao seu lado
 E/G#          F#  B9  
Cada Segundo Amor

                  E    
O Tempo passa depressa 
                    B9
quando estou com Você
                  C#m7 
As horas viram minutos 
                  G#m7
não consigo entender
                           A
E o que eu mais quero é viver ao seu lado
 E/G#          F#    
Cada Segundo Amor
      B9                     A9
Te Fazer Feliz Por Toda Vida

[Segunda Parte] 
 
        A9
Cada segundo que se passa
        A9/B
Mais aumenta essa vontade
        G#m7
Esse desejo
         C#m
Essa Paixão
B9        A9
Que me Domina, me fascina
       A9/B                F#m7
O Teu jeito de menina tão linda
            E              B9
Você enlouquece o meu coração
              A9                B9      
Você sabe que eu estou em suas mãos

( C ) 

[Refrão] 

                  F    
O Tempo passa depressa 
                    C
quando estou com Você
                  Dm   
As horas viram minutos 
                  Am7
não consigo entender
                           Bb9
E o que eu mais quero é viver ao seu lado
 F/A           G   C9
Cada Segundo Amor

                  F    
O Tempo passa depressa 
                    C
quando estou com Você
                  Dm   
As horas viram minutos 
                  Am7
não consigo entender
                           Bb9
E o que eu mais quero é viver ao seu lado
F/A            G  G/F
Cada Segundo Amor
      C9                 F
Te Fazer Feliz Por Toda Vida

[Final] C  Dm  Bb9
00:00 / 00:00
Outros vídeos desta música
Repetir
Outros vídeos desta música
Composição de Pedro Eduadrdo
1.283.723 exibições
    • ½ Tom
    • A
    • Bb
    • B
    • C
    • Db
    • D
    • Eb
    • E
    • F
    • F#
    • G
    • Ab
  • Adicionar à lista

    0 comentários

    Ver todos os comentários

    Conseguiu tocar?

    92 Tocaram 14 Ainda não

    Grave um vídeo tocando 60 Segundos e nos envie!

    Entre para oCifra Club PRO

    Tenha acesso a benefícios exclusivos no App e no Site

    • Chega de anúncios

    • Prioridade de compra em lançamentos

    • Mais recursos no app do Afinador

    • Atendimento Prioritário

    • Descontos nos produtos Cifra Club

    • Ajude a produzir mais conteúdo

    00:00 / 00:00

    Cifra Club Pro

    Aproveite o Cifra Club com benefícios exclusivos e sem anúncios
    Cifra Club Pro
    Aproveite o Cifra Club com benefícios exclusivos e sem anúncios
    OK