Cifra Club

Seja o Lugar de Adoração

Heloísa Rosa

Cifra: Principal (violão e guitarra)
tom: F#m (forma dos acordes no tom de Em) Capotraste na 2ª casa
[Intro] Em  D4(6)  C7M  
        Em  D4(6)  C7M 

   Em              D4(6)  
E|-------------------------------------------|
B|-------0-------0--------0------------------|
G|---0---------0------------------0----------|
D|-----------2--------4-------4--------------|
A|------------------5---5---5---5------------|
E|-0---0---0---------------------------------|

   C7M
E|-------------------------------------------|
B|-------0----------------0------------------|
G|---------------0----------------0----------|
D|---2-------2--------2-------2--------------|
A|-3---3---3---3----3---3---3---3------------|
E|-------------------------------------------|

   Em               D4(6) 
E|-------------------------------------------|
B|-------0----------------0------------------|
G|---0-------0---0----------------0----------|
D|-------------2------4-------4--------------|
A|------------------5---5---5---5------------|
E|-0---0---0---------------------------------|

   C7M
E|-------------------------------------------|
B|-------0----------------1p0----------------|
G|---------------0------------0---0----------|
D|---2-------2--------2----------------------|
A|-3---3---3---3----3---3-------3------------|
E|-------------------------------------------|

[Primeira Parte]

   Em              D4(6) 
E|-------------------------------------------|
B|-------0-------0--------0------------------|
G|---0---------0------------------0----------|
D|-----------2--------4-------4--------------|
A|------------------5---5---5---5------------|
E|-0---0---0---------------------------------|

   C7M
E|-------------------------------------------|
B|-------0----------------0------------------|
G|---------------0----------------0----------|
D|---2-------2--------2-------2--------------|
A|-3---3---3---3----3---3---3---3------------|
E|-------------------------------------------|

   Em               D4(6)  
E|-------------------------------------------|
B|-------0----------------0------------------|
G|---0-------0---0----------------0----------|
D|-------------2------4-------4--------------|
A|------------------5---5---5---5------------|
E|-0---0---0---------------------------------|

   C7M
E|-------------------------------------------|
B|-------0----------------0------------------|
G|---------------0----------------0----------|
D|---2-------2--------2-------2--------------|
A|-3---3---3---3----3---3---3---3------------|
E|-------------------------------------------|

   Em               D4(6)  
E|-------------------------------------------|
B|-------0----------------0------------------|
G|---0-------0---0----------------0----------|
D|-------------2------4-------4--------------|
A|------------------5---5---5---5------------|
E|-0---0---0---------------------------------|

   C7M
E|-------------------------------------------|
B|-------0----------------1p0----------------|
G|---------------0------------0---0----------|
D|---2-------2--------2----------------------|
A|-3---3---3---3----3---3-------3------------|
E|-------------------------------------------|

   Em               D4(6)  
E|-------------------------------------------|
B|-------0----------------0------------------|
G|---0-------0---0----------------0----------|
D|-------------2------4-------4--------------|
A|------------------5---5---5---5------------|
E|-0---0---0---------------------------------|

   C7M
E|-------------------------------------------|
B|-------0----------------0------------------|
G|---------------0----------------0----------|
D|---2-------2--------2-------2--------------|
A|-3---3---3---3----3---3---3---3------------|
E|-------------------------------------------|

   Em               D4(6)  
E|-------------------------------------------|
B|-------0----------------0------------------|
G|---0-------0---0----------------0----------|
D|-------------2------4-------4--------------|
A|------------------5---5---5---5------------|
E|-0---0---0---------------------------------|

   C7M
E|-------------------------------------------|
B|-------0----------------0------------------|
G|---------------0----------------0----------|
D|---2-------2--------2-------2--------------|
A|-3---3---3---3----3---3---3---3------------|
E|-------------------------------------------|

  Em     D11           C7M           
A intimidade não é pra muitos
  Em     D11            C7M
A intimidade não é pra muitos
              Em          D11
Mas pra quem busca ao Senhor
C7M                Em  D11  C7M
    De todo o coração
               Em  D11  C7M
De todo o coração

[Refrão]

 Em7/B    D11         C7M
Seja o lugar de adoração
   Em7       D11         C7M
Levante o altar e se ofereça
 Em7      D11         C7M
Seja o lugar de adoração
   Em7       D11         C7M
Levante o altar e se ofereça

[Segunda Parte]

Em          D11
   Há um lugar 
          C7M
Onde eu quero estar
Em        D11            C7M
   Pois ali eu te encontrei
Em          D11     C7M        
   Neste lugar de adoração

Que é só pra ti
Em       D11        C7M
   Sacrifícios já ofereci

[Refrão]

Em7          D11         C7M
Eu sou um lugar de adoração
   Em7           D11         C7M
Levanto o meu altar e me ofereço

Em7          D11         C7M
Eu sou um lugar de adoração
   Em7           D11         C7M
Levanto o meu altar e me ofereço

( Am7  G/B  C9  D )
( Em  D  D11  D  D9 )

   Am7 G/B C
E|-------------------------------------------|
B|-1---3---5-----5---5-------5--7------------|
G|-0---0---0---0-------0----0-----0----------|
D|-2---0-----0-----0-----0-------------------|
A|-0---2---3-------------------5-------------|
E|-------------------------------------------|

   Em              D   D11  D    D9
E|---------7---7-----------------------------|
B|-8---8-----------7---8----7----5-----------|
G|---0---0---0---0---0---0----0-----0--------|
D|-------------------------------------------|
A|-7---------------5--------5----------------|
E|-------------------------------------------|

[Ponte]

Am7           G/B  C9
    O fogo arderá 
             D11  Em
E não se apaga___rá
                D
Pois o altar é santo
Am7           G/B  C9
    O fogo arderá 
             D11  Em
E não se apaga___rá
                D
Pois o altar é santo
Am7           G/B  C9
    O fogo arderá 
             D11  Em
E não se apaga___rá
                D
Pois o altar é santo
Am7           G/B  C9
    O fogo arderá 
             D11  Em
E não se apaga___rá
                D
Pois o altar é santo

[Refrão]

 Em7      D11         C7M
Seja o lugar de adoração
   Em7       D11         C7M
Levante o altar e se ofereça
 Em7      D11         C7M
Seja o lugar de adoração
   Em7       D11         C7M
Levante o altar e se ofereça
 Em7      D11         C7M
Seja o lugar de adoração
   Em7       D11         C7M
Levante o altar e se ofereça
 Em7      D11         C7M
Seja o lugar de adoração
   Em7       D11         C7M
Levante o altar e se ofereça

[Ponte]

Am7           G/B  C9
    O fogo arderá 
             D11  Em
E não se apaga___rá
                D
Pois o altar é santo
Am7           G/B  C9
    O fogo arderá 
             D11  Em
E não se apaga___rá
                D
Pois o altar é santo

Am7           G/B  C9
    O fogo arderá 
             D11  Em
E não se apaga___rá
                D
Pois o altar é santo
Am7           G/B  C9
    O fogo arderá 
             D11  Em
E não se apaga___rá
                D
Pois o altar é santo

[Final] Am7  G/B  C9  
        D  Em  D11
        Am7  G/B  C9  
        D  Em  D11
00:00 / 00:00
Outros vídeos desta música
Repetir
Outros vídeos desta música
Composição de Heloisa Rosa
Colaboração e revisão:
3.496 exibições
    • ½ Tom
    • Am
    • Bbm
    • Bm
    • Cm
    • C#m
    • Dm
    • Ebm
    • Em
    • Fm
    • F#m
    • Gm
    • G#m
  • Adicionar à lista

    0 comentários

    Ver todos os comentários

    Entre para oCifra Club PRO

    Tenha acesso a benefícios exclusivos no App e no Site

    • Chega de anúncios

    • Prioridade de compra em lançamentos

    • Mais recursos no app do Afinador

    • Atendimento Prioritário

    • Descontos nos produtos Cifra Club

    • Ajude a produzir mais conteúdo

    00:00 / 00:00

    Cifra Club Pro

    Aproveite o Cifra Club com benefícios exclusivos e sem anúncios
    Cifra Club Pro
    Aproveite o Cifra Club com benefícios exclusivos e sem anúncios
    OK