Cifra Club

De Trás Pra Frente

Henrique e Juliano

Cifra: Principal
exibições 231.279
Tom: G (com acordes na forma de D) Capotraste na 5ª casa
[Intro] D  D4  D  D9
        G  G7M  G6  G7M

[Dedilhado Intro]

Parte 1

   D        D4       D        D9
E|-2-----2--3-----3--2-----2--0-----0-------|
B|-----3--------3--------3--------3---------|
G|---2--------2--------2--------2-----------|
D|-0--------0--------0--------0-------------|
A|------------------------------------------|
E|------------------------------------------|


Parte 2

   G        G7M      G6       G7M
E|-3-----3--2-----2--0-----0--0h2-----------|
B|-----3--------3--------3----3-------------|
G|---0--------0--------0--------------------|
D|------------------------------------------|
A|------------------------------------------|
E|-3--------3--------3--------3-------------|


[Primeira Parte]

       D
O problema dos erros 
      D4                D      D9
É que às vezes eles beijam bem
       G         G7M
E olha eu aqui, hein
            G6  G7M
Errando de novo

       D
O problema dos erros
      D4             D        D9
É que às vezes eles fazem bem
      G      G7M
Como ninguém
                G6  G7M
E a gente fica bobo

[Dedilhado Parte]

Parte 1

   D        D4       D        D9
E|-2-----2--3-----3--2-----2--0-------------|
B|-----3--------3--------3------------------|
G|---2--------2--------2--------------------|
D|-0--------0--------0--------0-------------|
A|------------------------------------------|
E|------------------------------------------|


Parte 2

   G        G7M      G6       G7M
E|-3-----3--2-----2--0-----0--0h2-----------|
B|-----3--------3--------3----3---3---------|
G|---0--------0--------0--------------------|
D|------------------------------------------|
A|------------------------------------------|
E|-3--------3--------3--------3-------------|


[Pré-refrão]

 Bm                       G5
Bobo, já sabendo que não vai dar certo
 D9                       A
Mas é bem pior não ter você por perto
Bm
E se eu for errando assim
     G5
Vai que eu acerto
     D9                     A
Vou adiando o fim só pra viver 
                  G
Nesse presente incerto

[Dedilhado Pré-refrão]

Parte 1

   Bm             G5
E|------------------------------------------|
B|---------3--------------------------------|
G|-----4-----4--------0---0h2-0-------------|
D|---4---------4----0-----0---0-------------|
A|-2-----2----------------------------------|
E|----------------3-----3-------------------|

Parte 2

   D9             A
E|---------0--------------------------------|
B|-----3-----3------------2--3p2------------|
G|---2---------2------2----------4p2--------|
D|-0-----0----------2----------------4------|
A|----------------0-----0-------------------|
E|------------------------------------------|

Parte 3

   Bm             G5
E|------------------------------------------|
B|---------3--------------------------------|
G|-----4-----4--------0---0h2-0-------------|
D|---4---------4----0-----0---0-------------|
A|-2-----4----------------------------------|
E|----------------3-----3-------------------|

Parte 4

   D9             A
E|---------0--------------------------------|
B|-----3-----3------------2h3-2-------------|
G|---2---------2------2---------------------|
D|-0-----0----------2-----------------------|
A|----------------0-----0-------------------|
E|------------------------------------------|

Parte 5

   G5
E|-----------------------x-x----------------|
B|-------3------3-3-3-3--x-x----------------|
G|-----0---0----0-0-0-0--x-x----------------|
D|---0-------0--0-0-0-0--x-x----------------|
A|-----------------------x-x----------------|
E|-3------------3-3-3-3--x-x--7\------------|

                ↓ ↓ ↓ ↓  ↓ ↑  ↓

[Refrão]

      Bm
E se fosse ao contrário, do avesso 
                 G
Ou de trás pra frente
       D9
Esse amor começaria errado 
A9
E terminaria bem

      Bm
E se fosse ao contrário, do avesso 
                 G
Ou de trás pra frente
       D9
Esse amor começaria errado 
A9                      Bm   A9  G
E terminaria bem com a gente
       Bm   A9  G
Com a gente
                
Eu vou errando sempre

[Base solo] Bm  G  D9  A9

[Solo]

Parte 1

E|----------------------------------------------------|
B|-8-8-8--7-7-7--5-5-5--------------------------------|
G|-7-7-7--7-7-7--7-7-7--7-7-7--7/9~-------------------|
D|----------------------------------------------------|
A|----------------------------------------------------|
E|----------------------------------------------------|

Parte 2

E|----------------------------x---x-x-----------------|
B|----------------------------x---x-x-----------------|
G|-7-7-7\5--5-5-5\4--4-4-4\2--x-2-x-x-0h2-------------|
D|----------------------------x---x-x-----------------|
A|----------------------------------------------------|
E|----------------------------------------------------|


[Pré-refrão]

 Bm                       G
Bobo, já sabendo que não vai dar certo
 D9                       A9
Mas é bem pior não ter você por perto
Bm
E se eu for errando assim
     G
Vai que eu acerto
     D9                     A9
Vou adiando o fim só pra viver 
                  G5
Nesse presente incerto

[Refrão]

      Bm
E se fosse ao contrário, do avesso 
                 G
Ou de trás pra frente
       D9
Esse amor começaria errado 
A9
E terminaria bem

      Bm
E se fosse ao contrário, do avesso 
                 G
Ou de trás pra frente
       D9
Esse amor começaria errado 
A9                      Bm   A9  G
E terminaria bem com a gente
       Bm   A9  G
Com a gente
                Bm
Eu vou errando sempre
Acordes para:

    0 comentários

      mostrar mais comentários

      Conseguiu tocar?

      6tocaram0ainda não

      Grave um vídeo tocando De Trás Pra Frente e mande pra gente!

      00:00 / 00:00
      outros vídeos desta música
      repetirqualidadeautomática
      Outro vídeos desta música
        00:00 / 00:00
        automática
        Capítulos
        • Tocando a música
        • Apresentação / Equipamentos
        • Acordes da Introdução e Primeira Parte
        • Tocando Introdução
        • Dedilhado Introdução
        • Introdução - Parte 1 de 2
        • Introdução - Parte 2 de 2
        • Dicas Primeira Parte
        • Tocando Primeira Parte
        • Dedilhado Primeira Parte
        • Primeira Parte - Parte 1 de 2
        • Primeira Parte - Parte 2 de 2
        • Acordes Pré-Refrão
        • Tocando Pré-Refrão
        • Dedilhado Pré-Refrão
        • Pré-Refrão - Parte 1 de 5
        • Pré-Refrão - Parte 2 de 5
        • Pré-Refrão - Parte 3 de 5
        • Pré-Refrão - Parte 4 de 5
        • Pré-Refrão - Parte 5 de 5
        • Acordes Refrão
        • Tocando Refrão
        • Ritmo Refrão
        • Variação do ritmo
        • Dicas Base do solo
        • Tocando Solo
        • Treinando Solo
        • Solo - Parte 1 de 2
        • Solo - Parte 2 de 2
        • Dicas Repetição
        • Tocando final
        • Encerramento
        OK