Cifra Club

Aprenda

Longo Caminho (Parte II)

Hevo84

Cifra: Principal (violão e guitarra)
tom: D
(afinar em D)

(intro)

E|-------------------------------------------------------------
B|-------------------------------------------------------------
G|-------------------------------------------------------------
D|-------3-------------3--------------3---------0-5/7-5-3-3-3h5
A|---3h5---5---3-5---5---5--3-3---3h5---5--3-5-----------------
D|-------------------------------------------------------------

São tantos planos que não me deixam desistir
Eu sei, seguir em frente eu sei que a vida vai mudar

D|--3~~------5~~----7~~--8~~---5~~--7~~---0~~
A|--3~~------5~~----7~~--8~~---5~~--7~~---0~~
D|--3~~------5~~----7~~--8~~---5~~--7~~---0~~

E o meu caminho só eu posso percorrer
Em minha mente eu tenho pena de você
Que não acreditou que eu poderia chegar
E não acreditou
Mesmo assim eu vou ficar
Em meio a verdade lá fora

E|-----------------------------------------------------------------
B|-----------------------------------------------------------------
G|-----------------------------------------------------------------
D|--0000--0000--000--3333--3333-333--5555-5555-555--7777-7777-777--   (2x)
A|--0000--0000--000--3333--3333-333--5555-5555-555--7777-7777-777--
D|--0000--0000--000--3333--3333-333--5555-5555-555--7777-7777-777--

Pra onde eu vou eu levo a esperança guardada em mim
Jamais desistir de um sonho, eu sei
E a vida lá fora vai prosseguir, vou caminhar

(intro)
E|-------------------------------------------------------------
B|-------------------------------------------------------------
G|-------------------------------------------------------------
D|-------3-------------3--------------3---------0-5/7-5-3-3-3h5
A|---3h5---5---3-5---5---5--3-3---3h5---5--3-5-----------------
D|-------------------------------------------------------------

Ainda me lembro quando andava pelo litoral
Pensando em algo que fizesse a diferença final

D|--3~~----5~~---7~~-
A|--3~~----5~~---7~~-
D|--3~~----5~~---7~~-
Idéias novas que fluiram em forma de canção
Meus passos são escuros e a vida é minha

(intro)

Então tentei buscar algo melhor
Sem família e sem dinheiro o mundo fica pior

D|--3~~----5~~---7~~-
A|--3~~----5~~---7~~-
D|--3~~----5~~---7~~-
Na capital moramos juntos, demos risadas
Mesmo no escuro essa galera enfrenta qualquer parada

(intro)

E hoje estou aqui tranquilo, outra pessoa

Não que eu não tenha medo mas eu to na boa
D|--3~~------5~~----7~~--8~~---5~~--7~~---0~~
A|--3~~------5~~----7~~--8~~---5~~--7~~---0~~
D|--3~~------5~~----7~~--8~~---5~~--7~~---0~~
Pra vencer qualquer parada, qualquer direção
Eu tenho pena de você que não não não não acreditou
Que eu poderia chegar
Não acreditou
Mesmo assim eu vou ficar
Em meio a verdade lá fora
(e a verdade prevalece)

E|-----------------------------------------------------------------
B|-----------------------------------------------------------------
G|-----------------------------------------------------------------
D|--0000--0000--000--3333--3333-333--5555-5555-555--7777-7777-777--   (2x)
A|--0000--0000--000--3333--3333-333--5555-5555-555--7777-7777-777--
D|--0000--0000--000--3333--3333-333--5555-5555-555--7777-7777-777--
Pra onde eu vou eu levo a esperança guardada em mim
(sem desistir eu sigo em frente)
Jamais desistir de um sonho, eu sei
E a vida lá fora vai prosseguir, vou caminhar
(e a verdade prevalece)
E a verdade prevalece

(intro)
Compositor não encontrado.
Colaboração e revisão:
  • Raffael Willdson
6.460 exibições
    • ½ Tom
    • A
    • Bb
    • B
    • C
    • Db
    • D
    • Eb
    • E
    • F
    • F#
    • G
    • Ab
  • Adicionar à lista

    0 comentários

    Ver todos os comentários

    Conseguiu tocar?

    1 Tocaram 0 Ainda não

    Grave um vídeo tocando Longo Caminho (Parte II) e nos envie!

    00:00 / 00:00
    Outros vídeos desta música
    Repetir Qualidade Automático
    Outros vídeos desta música
    00:00 / 00:00
    Automático

    Cifra Club Pro

    Aproveite o Cifra Club com benefícios exclusivos e sem anúncios
    Cifra Club Pro
    Aproveite o Cifra Club com benefícios exclusivos e sem anúncios
    OK