Cifra Club

Aprenda

Evil

Interpol

Cifra: Versão 4 (violão e guitarra)
tom: A#
Album: Antics
Track: 2
Guitarist 1: Daniel Kessler
Guitarist 2: Paul Banks

Guitar 1

Bass intro
Then guitar 1 enters with this
Pre-Chorus 00:37
e|------------------|           e|------------|
b|------------------|           b|------------|
g|-10-x--------77-7-|           g|-7777-7-10~-|
d|-10-x-8888-7-7777-|           d|-777777-10~-|
a|--8-x-xxxx-x-55x5-|           a|-5555x5--8~-|
e|------6666-5---5--| x4  then  e|-----5------|

Chorus
e|-----------------------------------------------------------------------|
b|----------------------6666--------------6666---------------------------|
g|-1010101010101010-77777777---------------------------------------------|
d|--x-x-x-x-x-x-x-x-xxxxxxxx-88888888-77777777-1010101010101010-88888888-|
a|--8-8-8-8-8-8-8-8-55555555-xxxxxxxx-xxxxxxxx--x-x-x-x-x-x-x-x-xxxxxxxx-|
e|---------------------------66666666-55555555--8-8-8-8-8-8-8-8-66666666-|x1

Verse 2
e|-x-x-x-|
b|-x-x-x-|
g|-x-x-x-|
d|-x-x-x-|
a|-x-x-x-|
e|-x-x-x-|x1 do this on the 15th fret

play this fast
e|------------------------------|
b|------------------------------|
g|-1414141414-14141414-14141414-|
d|-1515151515-14141414-12121212-|
a|------------------------------|
e|------------------------------|x4

Pre-Chorus 00:37
e|------------------|           e|------------|
b|------------------|           b|------------|
g|-10-x--------77-7-|           g|-7777-7-10~-|
d|-10-x-8888-7-7777-|           d|-777777-10~-|
a|--8-x-xxxx-x-55x5-|           a|-5555x5--8~-|
e|------6666-5---5--| x4  then  e|-----5------|

Chorus
e|-----------------------------------------------------------------------|
b|----------------------6666--------------6666---------------------------|
g|-1010101010101010-77777777---------------------------------------------|
d|--x-x-x-x-x-x-x-x-xxxxxxxx-88888888-77777777-1010101010101010-88888888-|
a|--8-8-8-8-8-8-8-8-55555555-xxxxxxxx-xxxxxxxx--x-x-x-x-x-x-x-x-xxxxxxxx-|
e|---------------------------66666666-55555555--8-8-8-8-8-8-8-8-66666666-|x2

Bridge
e|-----------------|
b|-----------------|
g|-14-1414-14-1414-|
d|-15-1515-14-1212-|
a|-----------------|
e|-----------------| x4

play this fast
e|------------------------------|
b|------------------------------|
g|-1414141414-14141414-14141414-|
d|-1515151515-14141414-12121212-|
a|------------------------------|
e|------------------------------|x2

e|-----------------|
b|-----------------|
g|-14-1414-14-1414-|
d|-15-1515-14-1212-|
a|-----------------|
e|-----------------| x4

Chorus
e|-----------------------------------------------------------------------|
b|----------------------6666--------------6666---------------------------|
g|-1010101010101010-77777777---------------------------------------------|
d|--x-x-x-x-x-x-x-x-xxxxxxxx-88888888-77777777-1010101010101010-88888888-|
a|--8-8-8-8-8-8-8-8-55555555-xxxxxxxx-xxxxxxxx--x-x-x-x-x-x-x-x-xxxxxxxx-|
e|---------------------------66666666-55555555--8-8-8-8-8-8-8-8-66666666-|x2

End
e|--------------------------------------------------------|
b|--------------------------------------------------------|
g|--------------------------------------------------------|
d|-1010101010101010-88888888-1010101010101010-88888888-7~-|
a|--x-x-x-x-x-x-x-x-xxxxxxxx--x-x-x-x-x-x-x-x-xxxxxxxx-x~-|
e|--8-8-8-8-8-8-8-8-66666666--8-8-8-8-8-8-8-8-66666666-5~-|



Guitar 2

Bass intro, guitar 1, then while guitar 1 plays pre-chorus

Hey wait...
Great smile...
Fate...
Denial...     Trial...
e|-------|   |-------------------|
b|-8-8---|   |-8-8---6-6-6-6-6-6-|
g|-5-5---|   |-5-5---5-5-5-5-5-5-|
d|-------|   |-------------------|
a|-------|   |-------------------|
e|-------|x4 |-------------------|x1

Chorus x1
e|-------------------------------------------------------------|
b|-------------------------------------------------------------|
g|-1010101010101010-77777777-1515151515151515-1414141414141414-|
d|--x-x-x-x-x-x-x-x-xxxxxxxx--x-x-x-x-x-x-x-x--x-x-x-x-x-x-x-x-|
a|--8-8-8-8-8-8-8-8-55555555-1313131313131313-1212121212121212-|
e|-------------------------------------------------------------|

e|---------------------------|
b|---------------------------|
g|---------------------------|
d|-1010101010101010-88888888-|
a|--x-x-x-x-x-x-x-x-xxxxxxxx-|
e|--8-8-8-8-8-8-8-8-66666666-|

Hey wait...
Great smile...
Fate...
Denial...     Trial...
e|-------|   |-------------------|
b|-8-8---|   |-8-8---6-6-6-6-6-6-|
g|-5-5---|   |-5-5---5-5-5-5-5-5-|
d|-------|   |-------------------|
a|-------|   |-------------------|
e|-------|x4 |-------------------|x1

Chorus x2
e|-------------------------------------------------------------|
b|-------------------------------------------------------------|
g|-1010101010101010-77777777-1515151515151515-1414141414141414-|
d|--x-x-x-x-x-x-x-x-xxxxxxxx--x-x-x-x-x-x-x-x--x-x-x-x-x-x-x-x-|
a|--8-8-8-8-8-8-8-8-55555555-1313131313131313-1212121212121212-|
e|-------------------------------------------------------------|

e|---------------------------|
b|---------------------------|
g|---------------------------|
d|-1010101010101010-88888888-|
a|--x-x-x-x-x-x-x-x-xxxxxxxx-|
e|--8-8-8-8-8-8-8-8-66666666-|

Bridge
e|--------------------|
b|--------------------|
g|--------------------|
d|-3333-5555-77777777-|
a|--------------------|
e|--------------------|x1

Chorus x2
e|-------------------------------------------------------------|
b|-------------------------------------------------------------|
g|-1010101010101010-77777777-1515151515151515-1414141414141414-|
d|--x-x-x-x-x-x-x-x-xxxxxxxx--x-x-x-x-x-x-x-x--x-x-x-x-x-x-x-x-|
a|--8-8-8-8-8-8-8-8-55555555-1313131313131313-1212121212121212-|
e|-------------------------------------------------------------|

e|---------------------------|
b|---------------------------|
g|---------------------------|
d|-1010101010101010-88888888-|
a|--x-x-x-x-x-x-x-x-xxxxxxxx-|
e|--8-8-8-8-8-8-8-8-66666666-|

End
e|--------------------------------------------------------|
b|--------------------------------------------------------|
g|--------------------------------------------------------|
d|-1010101010101010-88888888-1010101010101010-88888888-7~-|
a|--x-x-x-x-x-x-x-x-xxxxxxxx--x-x-x-x-x-x-x-x-xxxxxxxx-8~-|
e|--8-8-8-8-8-8-8-8-66666666--8-8-8-8-8-8-8-8-66666666-5~-|
Composição de Interpol
640 exibições
    • ½ Tom
    • A
    • Bb
    • B
    • C
    • Db
    • D
    • Eb
    • E
    • F
    • F#
    • G
    • Ab
  • Adicionar à lista

    0 comentários

    Ver todos os comentários

    Conseguiu tocar?

    0 Tocaram 0 Ainda não

    Grave um vídeo tocando Evil e nos envie!

    00:00 / 00:00
    outros vídeos desta música
    repetir qualidade Automático
    Outros vídeos desta música
    00:00 / 00:00
    Automático

    Cifra Club Pro

    Aproveite o Cifra Club com benefícios exclusivos e sem anúncios
    Cifra Club Pro
    Aproveite o Cifra Club com benefícios exclusivos e sem anúncios
    OK