Cifra Club

Aprenda

Evil

Interpol

Tab de baixo: Versão 2
Verse 1
G:------------------------------------------|
D:------------------------------------------|
A:---8-88----------------------5-5----------|
E:------------666-----5-55---------5--------|

G:------------------------------------------|
D:------------------------------------------|
A:---8-88----------------------5-5-5--------|
E:------------666-----5-55------------------|


Pre-Chorus
G:-------------------------------------------------------------|
D:------------------------------------------0-0--------0-------|
A:-----------------1-1------1-0-------0------------------------|
E:-1---------1-------------------------------------------------|

G:----------------------------------3-----2----2-------2------|
D:---------------------------------------------------0--------|
A:-----------------1-1------1--0-----0-----0------------------|
E:-1---------1------------------------------------------------|

G:-------------------------------------------------------------|
D:------------------------------------------0-0--------0-------|
A:-----------------1-1------1-0-------0------------------------|
E:-1---------1-------------------------------------------------|

G:----------------------------------3-----2----2-------2------|
D:---------------------------------------------------0--------|
A:-----------------1-1------1--0-----0-----0------------------|
E:-1---------1------------------------------------------------|

G:--------------------------------------------------|
D:--------------------------------------------------|
A:-----8-8-----------------------------------5-5----|
E:-----------------6-6---------5-5------------------|

G:--------------------------------------------------|
D:--------------------------------------------------|
A:-----8-8-----------------------------------5-5----|
E:-----------------6-6---------5-5------------------|


Chorus:
G:------------------------------------------------------------|
D:------------------------------------------------------------|
A:-88888888-55555555------------------------------------------|
E:------------------------------66666666-55555555-------------|

G:----------------------------------------|
D:----------------------------------------|
A:--------------------------55----77------|
E:-88888888---6666------------------------|


Verse #2:
G:------------------------------------------|
D:------------------------------------------|
A:---8-88----------------------5-5----------|
E:------------666-----5-55---------5--------|

G:-----------------------------------------------|
D:-----------------------------------------------|
A:---8-88------------------------55----77--------|
E:------------666-----5------5-------------------|

Prechorus

Chorus x2 	(At the end of these choruses, do this:
		A:-------------
Composição de Interpol
493 exibições

0 comentários

Ver todos os comentários

Conseguiu tocar?

0 Tocaram 0 Ainda não

Grave um vídeo tocando Evil e nos envie!

00:00 / 00:00
outros vídeos desta música
repetir qualidade Automático
Outros vídeos desta música
00:00 / 00:00
Automático

Cifra Club Pro

Aproveite o Cifra Club com benefícios exclusivos e sem anúncios
Cifra Club Pro
Aproveite o Cifra Club com benefícios exclusivos e sem anúncios
OK