Cifra Club

Ruja o Leão / Que Se Abram Os Céus (Part . Nívea Soares)

Isaías Saad

Cifra: Principal (violão e guitarra)
tom: E
[Intro] C#m  B9  A  F#m7

E|--------------2---------------------------|-----|
B|-------2-4-5---4-5-2----------------------|-----|
G|------------------------------------------| (4x)
D|------------------------------------------|-----|
A|------------------------------------------|-----|
E|------------------------------------------|-----|


[Verso] 

 C#m          B9          A       F#m7
Sobre o trono de justiça eternamente
        C#m
Haverá um Rei
    C#m          B9          A      F#m7
Ele voltará para governar as nações
     C#m  
Em amor

[Refrão] 

             C#m                   B4 B
Que ruja o Leão e que a terra estremeça
          A     F#m7     C#m  
Diante da majestade de Jesus

           C#m                     B4 B
Que ruja o Leão e que a terra estremeça
          A     F#m7     C#m  
Diante da majestade de Jesus

[Verso] 

 C#m          B/C#       A/C#     F#m7
Sobre o trono de justiça eternamente
        C#m
Haverá um Rei
    C#m          B/C#          A/C# F#m7
Ele voltará para governar as nações
     C#m  
Em amor

[Refrão] 
             C#m                   B4 B
Que ruja o Leão e que a terra estremeça
          A     F#m7     C#m  
Diante da majestade de Jesus

           C#m                     B4 B
Que ruja o Leão e que a terra estremeça
          A     F#m7     C#m  
Diante da majestade de Jesus

[Intrumental]
( C#m  B9  A  F#m7 ) (2x)
E|------------------------------------------|
B|---------4-5-7--4-5-----------------------|
G|-------6------------6-6-6-----------------|
D|------------------------------------------|
A|------------------------------------------|
E|------------------------------------------|

E|------------------------------------------|
B|---------4-5-7--4-5-----------------------|
G|-------6------------6-9-9-----------------|
D|------------------------------------------|
A|------------------------------------------|
E|------------------------------------------|

E|------------------------------------------|
B|---------4-5-7--4-5-----------------------|
G|-------6------------6-6-6-----------------| (2x)
D|------------------------------------------|
A|------------------------------------------|
E|------------------------------------------|

E|---9-11-12--12/14--11-12-9---14b16-b16----|
B|------------------------------------------|
G|------------------------------------------|
D|------------------------------------------|
A|------------------------------------------|
E|------------------------------------------|

E|---9-11-12--12/14--11-12-9----7b9--b9-----|
B|------------------------------------------|
G|------------------------------------------|
D|------------------------------------------|
A|------------------------------------------|
E|------------------------------------------|

E|---9-11-12--12/14--11-12-9---14b16-b16----|
B|------------------------------------------|
G|------------------------------------------|
D|------------------------------------------|
A|------------------------------------------|
E|------------------------------------------|

E|---9-11-12--12/14--11-12-9~---------------|
B|------------------------------------------|
G|------------------------------------------|
D|------------------------------------------|
A|------------------------------------------|
E|------------------------------------------|


[Ponte] 

  C#m
O Descendente de Davi
  B9
O Homem mais notável
    A         F#m7  C#m            
Ele ama a justiça odeia iniquidade

  C#m
O Descendente de Davi
  B9
O Homem mais notável
    A         F#m7  C#m            
Ele ama a justiça odeia iniquidade

[Refrão] 
             C#m                   B4 B
Que ruja o Leão e que a terra estremeça
          A     F#m7     C#m  
Diante da majestade de Jesus

           C#m                     B4 B
Que ruja o Leão e que a terra estremeça
          A     F#m7     C#m  
Diante da majestade de Jesus

[Instrumental]
( C#m7  E  C#m  B ) 
( C#m7  E  C#m  B ) 

E|------------------------------------------|
B|-------10-9~---10-9~---9------------------|
G|-----9~------------------11~--------------|
D|------------------------------------------| (2x)
A|------------------------------------------|
E|------------------------------------------|

                 C#m
Que se abram os céus
             A
O teu reino vem
            C#m
Nossa fé está
          B
No nosso Deus

                 C#m
Que se abram os céus
             A
O teu reino vem
            C#m
Nossa fé está
          B
No nosso Deus

                 C#m
Que se abram os céus
             A
O teu reino vem
            C#m
Nossa fé está
          B
No nosso Deus

                 C#m
Que se abram os céus
             A/C#
O teu reino vem
            E/B
Nossa fé está
          B
No nosso Deus

        C#m7
Que os céus fechados se abram
    A
Teu reino venha mover
  E
A nossa fé e esperança
         B
Estão em Deus Grande Deus

        C#m7
Que os céus fechados se abram
    A
Teu reino venha mover
  E
A nossa fé e esperança
         B
Estão em Deus Grande Deus

        C#m7
Que os céus fechados se abram
    A
Teu reino venha mover
  E
A nossa fé e esperança
          B
Estão em Deus Grande Deus

        C#m7
Que os céus fechados se abram
 A/C#
Teu reino venha mover
  E/B
A nossa fé e esperança
         B
Estão em Deus Grande Deus

[Final] C#m7  E  C#m  B
        C#m7  E  C#m  B  [A]
00:00 / 00:00
Outros vídeos desta música
Repetir
Outros vídeos desta música
Compositor não encontrado.
Colaboração e revisão:
  • Igor Albuquerque
  • Matheus Silveira
  • Hudson Sillva
24.215 exibições
    • ½ Tom
    • A
    • Bb
    • B
    • C
    • Db
    • D
    • Eb
    • E
    • F
    • F#
    • G
    • Ab
  • Adicionar à lista

    0 comentários

    Ver todos os comentários

    Conseguiu tocar?

    1 Tocaram 0 Ainda não

    Grave um vídeo tocando Ruja o Leão / Que Se Abram Os Céus (Part . Nívea Soares) e nos envie!

    Entre para oCifra Club PRO

    Tenha acesso a benefícios exclusivos no App e no Site

    • Chega de anúncios

    • Prioridade de compra em lançamentos

    • Mais recursos no app do Afinador

    • Atendimento Prioritário

    • Descontos nos produtos Cifra Club

    • Ajude a produzir mais conteúdo

    00:00 / 00:00

    Cifra Club Pro

    Aproveite o Cifra Club com benefícios exclusivos e sem anúncios
    Cifra Club Pro
    Aproveite o Cifra Club com benefícios exclusivos e sem anúncios
    OK