Cifra Club

Ruja o Leão / Que Se Abram Os Céus (Pot-Pourri) (part . Nívea Soares)

Isaías Saad

Cifra: Principal (violão e guitarra)
tom: C#m
[Intro] C#m  B6(9)  A7M  F#m7

[Tab - Intro]

Parte 1 de 2
E|------------------------------------------|
B|---4-5-7-4-5---------4-5-7-4-5------------|
G|-6-----------6----6------------6----------|
D|------------------------------------------|
A|------------------------------------------|
E|------------------------------------------|

Parte 2 de 2
E|------------------------------------------|
B|---4-5-7-4-5---------4-5-7-4-5------------|
G|-6-----------6----6------------6----------|
D|------------------------------------------|
A|------------------------------------------|
E|------------------------------------------|

[Primeira Parte] 

 C#m           G#m11/B
Sobre o trono de justiça
  A7M     F#m7      C#m
Eternamente, haverá um rei
     C#m11        G#m11/B
Ele voltará para governar
      A7M  F#m7      C#m
As nações       em amor

[Refrão] 

Que ruja o leão
                    B4(6)  B6
E que a Terra estreme_____ça
           A7M  F#m7      C#m
Diante da majestade de Jesus

Que ruja o leão
                    B4(6)  B6
E que a Terra estreme_____ça
           A7M  F#m7      C#m
Diante da majestade de Jesus

[Primeira Parte] 

               C#7(4/9)
Sobre o trono de justiça
  A7M/C#  F#m7      C#m
Eternamente, haverá um rei
                  C#7(4/9)
Ele voltará para governar
      A7M/C#  F#m7      C#m
As nações          em amor

[Refrão] 

Que ruja o leão
                    B4(6)  B6
E que a Terra estreme_____ça
           A7M  F#m7      C#m
Diante da majestade de Jesus

Que ruja o leão
                    B4(6)  B6
E que a Terra estreme_____ça
           A7M  F#m7      C#m
Diante da majestade de Jesus

Que ruja o leão
                    B4(6)  B6
E que a Terra estreme_____ça
           A7M  F#m7      C#m
Diante da majestade de Jesus

Que ruja o leão
                    B4(6)  B6
E que a Terra estreme_____ça
           A7M  F#m7      C#m
Diante da majestade de Jesus

[Solo] C#m  B6(9)  A7M  F#m
       C#m  B6(9)  A7M  F#m

[Tab - Solo]

Parte 1 de 5
E|------------------------------------------|
B|------------------------------------------|
G|----------11------------------------------| (4x)
D|-11-13-14----13-14-11--11~----------------|
A|------------------------------------------|
E|------------------------------------------|

Parte 2 de 5
E|------------------------------------------|
B|-----------------------12b14~-------------|
G|----------11------------------------------|
D|-11-13-14----13-14-11---------------------|
A|------------------------------------------|
E|------------------------------------------|

Parte 3 de 5
E|------------------------------------------|
B|-----------------------14b16r14-12-14-----|
G|----------11------------------------------|
D|-11-13-14----13-14-11---------------------|
A|------------------------------------------|
E|------------------------------------------|

Parte 4 de 5
E|------------------------------------------|
B|------------------------------------------|
G|----------11-----------11b13r11p9-11-9----|
D|-11-13-14----13-14-11---------------------|
A|------------------------------------------|
E|------------------------------------------|

Parte 5 de 5
E|------------------------------------------|
B|------------------------------------------|
G|----------11------------------------------|
D|-11-13-14----13-14-11~--------------------|
A|------------------------------------------|
E|------------------------------------------|

[Ponte] 

   C#m
O descendente de Davi
   G#m11/B
O homem mais notável
    A7M       F#m    C#m
Ele ama a justiça, odeia iniquidade

O descendente de Davi
   G#m11/B
O homem mais notável
    A7M         F#m  C#m
Ele ama a justiça, odeia iniquidade

O descendente de Davi
   B6(9)
O homem mais notável
    A7M       F#m    C#m
Ele ama a justiça, odeia iniquidade

O descendente de Davi
   B
O homem mais notável
    A7M       F#m    C#m
Ele ama a justiça, odeia iniquidade

[Refrão] 

Que ruja o leão
                    B4(6)  B6
E que a Terra estreme_____ça
           A7M  F#m7      C#m
Diante da majestade de Jesus

Que ruja o leão
                    B4(6)  B6
E que a Terra estreme_____ça
           A7M  F#m7      C#m
Diante da majestade de Jesus

[Solo] C#m  E  C#m  B
       C#m  E  C#m  B

[Tab - Solo]

Parte 1 de 2
E|------------------------------------------|
B|---------10-9~--10-9~--9-7~---------------|
G|-9-9-9-9----------------------------------|
D|------------------------------------------|
A|------------------------------------------|
E|------------------------------------------|

Parte 2 de 2
E|------------------------------------------|
B|-----10-9~--10-9~--9-7~-------------------|
G|-9~---------------------------------------|
D|------------------------------------------|
A|------------------------------------------|
E|------------------------------------------|

[Segunda Parte] 

                 C#m
Que se abram os céus
             A7M
O Teu reino vem
            C#m          B
Nossa fé está, no nosso Deus

                 C#m
Que se abram os céus
             A7M
O Teu reino vem
            C#m          B
Nossa fé está, no nosso Deus

                 C#m7
Que se abram os céus
             A7M
O Teu reino vem
            C#m7         B
Nossa fé está, no nosso Deus

                 C#m7
Que se abram os céus
             A7M/C#
O Teu reino vem
            B4           B
Nossa fé está, no nosso Deus

[Terceira Parte] 

        C#m
Que os céus fechados se abram
     A
Teu reino venha mover
   C#m
A nossa fé e esperança
          B
Estão em Deus, grande Deus

        C#m
Que os céus fechados se abram
     A
Teu reino venha mover
   C#m
A nossa fé e esperança
          B
Estão em Deus, grande Deus

        C#m
Que os céus fechados se abram
     A
Teu reino venha mover
   C#m
A nossa fé e esperança
          B
Estão em Deus, grande Deus

        C#m
Que os céus fechados se abram
     A/C#
Teu reino venha mover
   B4
A nossa fé e esperança
          B
Estão em Deus, grande Deus

[Final] C#m  E  C#m  B
        C#m  E  C#m  B  A2

[Tab - Final]

Parte 1 de 2
E|------------------------------------------|
B|------10-9~--10-9~--9-7~------------------|
G|-9~~--------------------------------------|
D|------------------------------------------|
A|------------------------------------------|
E|------------------------------------------|

Parte 2 de 2
E|------------------------------------------|
B|------10-9~--10-9~--9-7~------------------|
G|-9~~-----------------------9~-------------|
D|------------------------------------------|
A|------------------------------------------|
E|------------------------------------------|
00:00 / 00:00
Outros vídeos desta música
Repetir
Outros vídeos desta música
Composição de Cody Carnes/Kari Jobe Carnes/Talita Catanzaro
Colaboração e revisão:
194.318 exibições
  • Simplificar cifra
    • ½ Tom
    • Am
    • Bbm
    • Bm
    • Cm
    • C#m
    • Dm
    • Ebm
    • Em
    • Fm
    • F#m
    • Gm
    • G#m
  • Adicionar à lista

    0 comentários

    Ver todos os comentários

    Entre para oCifra Club PRO

    Tenha acesso a benefícios exclusivos no App e no Site

    • Chega de anúncios

    • Prioridade de compra em lançamentos

    • Mais recursos no app do Afinador

    • Atendimento Prioritário

    • Descontos nos produtos Cifra Club

    • Ajude a produzir mais conteúdo

    00:00 / 00:00

    Cifra Club Pro

    Aproveite o Cifra Club com benefícios exclusivos e sem anúncios
    Cifra Club Pro
    Aproveite o Cifra Club com benefícios exclusivos e sem anúncios
    OK