Cifra Club

Aprenda

Good People

Jack Johnson

Cifra: Principal (violão e guitarra)
tom: B
[Intro]

E|-----------------------------------------------------|
B|----------------------------------9--9s10--9--7--7---|
G|--------9-9b10-r9p7--7------------------------7--7---|
D|--------------------9-9------------------------------|
A|-----------------------------------------------------|
E|--7--7--------------------9-9------------------------|

E|-----------------------------------------------------|
B|----------------------------------7--7-----7---------|
G|--------9-9b10-r9p7-----7----------------9---9--7----|
D|-------------------9-------------------------------9-|
A|-----------------------------------------------------|
E|--7--7--------------------9--9-----------------------|

B      E              C#m      F#
  You win it's your show now, So what's it going to be?
B               E             C#m                      F#
  Cause people will tune in, How many train wrecks do we need to see?
B      E          C#m        F#
  Before we lose touch, And we thought this was low
B            E            C#m
  Well it's bad, getting worse

  F#                         B  E  C#m
Where'd all the good people go?
            F#                           B            E      C#m
I've been changing channels and I don't see them on the tv shows
  F#             B    E      C#m
Where'd all the good people go?
           F#                  B      E  C#m  F#
We've got heaps and heaps of what we sow

           B                   E
They got this and that with a rattle a tat
    C#m             F#
Testing, one, two, man whatcha gonna do
     B                 E
Bad news misused, got too much to lose
 C#m                      F#
Give me some truth now, who's side are we on
    B         E                C#m                   F#
Whatever you say, Turn on the boob tube, I'm in the mood to obey
    B          E            C#m
So lead me astray, And by the way now

  F#             B     E     C#m
Where'd all the good people go?
            F#                           B            E      C#m
I've been changing channels and I don't see them on the tv shows
  F#             B    E      C#m
Where'd all the good people go?
           F#             B    E      C#m  F#
We've got heaps and heaps of what we sow

[Ponte]

E|----------------------------------7-------------------------|
B|----------------------------------7----10--7----------------|
G|--------9-9b10-r9p7--7-------------------------9------------|
D|--------------------9-9-------------------------------------|
A|------------------------------------------------------------|
E|--7--7--------------------9-9-------------------------------|

E|------------------------------------------------------------|
B|------------------------------------------------------------|
G|--------9-9b10-r9p7-----7----------11-10-11-10-11-10---9----|
D|-------------------9----------------------------------------|
A|------------------------------------------------------------|
E|--7--7-------------------9--9-------------------------------|

E                         B
  Sitting around feeling far away
C  C#                                 F#*             F
      So far away but I can feel the debris, can you feel it?
E                            B
  You interrupt me from a friendly conversation
C  C#                                         F#
      To tell me how great it's all going to be
F  E               B
      You might notice some hesitation
C  C#                                               F#
      It's important to you, it's not important to me
F  E                      B
      But way down by the edge of yo--ur reason
C  C#                             E
      It's beginning to show, and all I really want to know is

  F#             B    E      C#m
Where'd all the good people go?
            F#                           B       E           C#m
I've been changing channels and I don't see them on the tv shows
  F#             B    E      C#m
Where'd all the good people go?
           F#        B         E      C#m  F#
We've got heaps and heaps of what we sow      (Where'd all the good people go?)

      B                     E
They got this and that with a rattle a tat
    C#m             F#
Testing, one, two, man whatcha gonna do
     B             E
Bad news misused, give me some truth
         C#m                      F#
You got too much to lose,  Whose side are we on
                           
   B                   E
Today anyway, Okay whatever you say
  C#m                          F#
Wrong and resolute but in the mood to obey
  B          E            C#m          F#
Station to station, desensitizing the nation
Where'd all the good people go?
 B
Going, going, gone
Composição de Jack Johnson
Colaboração e revisão:
280.742 exibições
    • ½ Tom
    • A
    • Bb
    • B
    • C
    • Db
    • D
    • Eb
    • E
    • F
    • F#
    • G
    • Ab
  • Adicionar à lista

    0 comentários

    Ver todos os comentários

    Conseguiu tocar?

    14 Tocaram 1 Ainda não

    Grave um vídeo tocando Good People e nos envie!

    00:00 / 00:00
    Outros vídeos desta música
    Repetir Qualidade Automático
    Outros vídeos desta música
    00:00 / 00:00
    Automático

    Cifra Club Pro

    Aproveite o Cifra Club com benefícios exclusivos e sem anúncios
    Cifra Club Pro
    Aproveite o Cifra Club com benefícios exclusivos e sem anúncios
    OK