Enviar cifraEntrar

Taylor

Jack Johnson

Cifra: Principal
exibições 494.545
Tom: C

E|-------X------------------------------X----------------------X---------------------------|
B|-------X------------------------------X----------------------X---------------------------|
G|-------X------------------------------X----------------------X---------------------------| (Intro)
D|-------X------------------------------X----------------------X-----1h3p1---1p0-----------|
A|-x-1h3-X-X-X-1h3p1---1--1-------------X-X-X-------1-2-x-2h3--X-X-X-------3-----3p0-------|
E|-------------------3-------3p1p0--1-1-------1h2h3------------------------------------1-1-|


E|-X---------------------------------------------------------------------X---------0-----|
B|-X--------------------------------X--------------------------X---------X---4--X--1-----|
G|-X--------------------------------X--------------------------X---------X---2--X--0-----|
D|-X--------------------------------X-3-3/5-3p0--2p0-----------X--1--1---X---------2-----|
A|-X-X-X-----1-----1-----1-----1-3--X-----------------3--------X--3--3---X---------3-----|
E|-------1h3---1h3---1h3---1h3------------------------------1-1---1--1-------------------|


E|--0-0-0---0----0----0----------0-|
B|--1-3-3/5-5/3--3----1-------1--1-|
G|--0-0-0---0----0----0---2p0----2-|
D|-------------------------------3-|
A|---------------------------------|
E|---------------------------------|


Use palm mute no verso e de ênfase nas 2 cordas mais graves de cada acorde

(Verso)
( C C/B Am F )
They say taylor was a good girl  never one to be late
complain  express ideas in her brain

working on the night shift  passing out the tickets
cause you're gonna have to pay her if you want to park here

well mommys little dancer has quite a little secret
working on the streets now  never gonna keep it

its quite an imposition and now shes only wishing
that she would have listened to the words they said
poor taylor

(Refrão)
( C  G  Am  F )
she just wonders around  unaffected by
the winter winds here and she'll pretend that
she's somewhere else  so far and clear
about two thousand miles from here

(Verso)
( C C/B Am F )
peter patrick pitter patters on the window
but sunny silhouette wont let him in
poor old petes got nothing 'cause hes been falling
somehow sunny knows just where hes been
he thinks that singing on sunday is gonna save his soul
now that saturday is gone
sometimes he thinks that hes on his way
but i can see that his break lights are on

(Refrão)
( C  G  Am  F )
he just wonders around unaffected by
the winter winds here and he'll pretend that
hes somewhere else  so far and clear
about two thousand miles from here

(Verso)
( C C/B Am F )
such a tough enchilada filled up with nada
giving what she gotta give to get a dollar bill
used to be a limber chicken  times a been a ticking
nows shes finger licking to the man
with the money in his pocket flying in his rocket
only stopping by on his way to a better world

(Verso)
( C C/B Am F )
if taylor finds a better world
then taylor's gonna run away

(Intro)

No acorde de F use no formato abaixo para ficar mais fácil


E|--X-----|
B|--1-----|
G|--2-----|
D|--3-----|
A|--X-----|
E|--X-----|
  • 1
  • 2
  • 3
  • 4
  • 5
  • 6
  • 7
  • 8
  • 9
  • 10
  • 11
  • 12
    Acordes para:

      0 comentários

        mostrar mais comentários

        Conseguiu tocar?

        29tocaram0ainda não

        Grave um vídeo tocando Taylor e mande pra gente!

        00:00 / 00:00
        outros vídeos desta música
        repetirqualidadeautomática
        • automática
        Outro vídeos desta música
          00:00 / 00:00
          automática
          • automática
          Acordes para:violão e guitarra
          dificuldadeexibiçõescontribuições
          1 versão de Tab de baixoexibiçõescontribuições
          2 versões de Guitar Proformatodownloadscontribuição
          fecharplay/pause subir/descer velocidade
            acordes
            fechar
            OK
            Feedback