Cifra Club

Aprenda

Price Tag

Jessie J

Cifra: Principal (violão e guitarra)
Tom: Dm
E|---------5--------------5--------------5--------------6---|
B|---------6--------------5--------------6--------------6---|
G|---------5--------------6--------------7--------------7---|
D|---------7--------------7--------------7--------------8---|
A|-8---8---8--------------7------5---5---5--------------8---|
E|---------5------5---5---5---------------------6---6---6---|

E|---------5---5------------5------------5---------------6--|
B|---------5h6-6------------5------------5h-6------------6--|
G|---------5---5------------6------------5h-6------------7--|
D|---------5h7-7------------7------------5h-7------------8--|
A|-8---8---8---8------------7----5---5---5---------------8--|
E|---------5---5----5---5---5--------------------6---6---6--|
Composição de Bobby Ray Simmons / Claude Kelly / Dr. Luke / Jessica Cornish / Lukas Gottwald
Colaboração e revisão:
  • Alicia Dias
23.920 exibições
    • ½ Tom
    • Am
    • Bbm
    • Bm
    • Cm
    • C#m
    • Dm
    • Ebm
    • Em
    • Fm
    • F#m
    • Gm
    • G#m
  • Adicionar à lista

    0 comentários

    Mostrar mais comentários

    Conseguiu tocar?

    1 Tocaram 0 Ainda não

    Grave um vídeo tocando Price Tag e mande pra gente!

    00:00 / 00:00
    outros vídeos desta música
    repetir qualidade Automático
    Outros vídeos desta música
    00:00 / 00:00
    Automático
    OK