Cifra Club

Aprenda

Put Your Money Where Your Mouth Is

Jet

Cifra: Principal (violão e guitarra)
Tom: D
Riff 1

e|--------------------------------------------------------
B|--------------------------------------------------------
G|--------------------------------------------------------
D|--------------------------------------------------------
A|--------5-----------------5---5-------------------------
E|--7-7-7---5-5-5-0-5-5-5-7---7---7-----------------------



B
She's a loaded gun
In my shaking hands
Am I in hell, or the promised land, yeah

A B
(Whats your name)
So I tell you my name when I'm on your skin
A F#
(You can be)
You can be the queen, and I'll be the king
A E
(I'll get born)                     A B
Now I'm gonna echo but never again, not for anyone, anyone

RIFF 1

She said

B    A   E
Show me yours, (Show you what I got yeah)
     D     A   B
I'll show you mine (Will you tell me what you need)
B     A   E
Show me yours, (So put your money where your mouth is)
     D     A   B
I'll show you mine (WAAAAOU!)


A  B
And the beat goes on
She knows nothin' is wrong
She goes down, like a setting sun, ow


A  B
(Whats your name)
If I tell you my name you gotta let me in
A F#
(You can be)
You can be the sinner, I'll be the sin
A E
(I will take)                               A B
I'll take what I want, and it's easy to see, I got everything, everything

She said

B    A   E
Show me yours, (Show you what I got yeah)
     D     A   B
I'll show you mine (Will you tell me what you need)
B     A   E
Show me yours, (So put your money where your mouth is)
     D     A   B         A B
I'll show you mine (WAAAAOU!)

Come on!!

e|--------------------------------4--7---9b11-7---7-7-7--5-5-5--4--7-7-7-7----7-9b11-7---7---
B|------7-----------------------7-----------------7-7-7--5-5-5--5--7-7-7-7--9----------9-----
G|--6b8---6b8-4-6-4-----4h6-6b8--------------------------------------------------------------
D|-------------------4h6---------------------------------------------------------------------
A|-------------------------------------------------------------------------------------------
E|-------------------------------------------------------------------------------------------

B    A   E
Show me yours, (Show you what I got yeah)
     D     A   B 
I'll show you mine (When you tell me what you need)
B    A    E
Show me yours, (So put your money where your mouth is)
     D    A    B
I'll show you mine....(Watch out, watch out...)
B  A  E                         D A B  
Any face, (Yeah yeah yeah...), anytime 

Composição de Cameron Muncey / Chris Cester / Nic Cester
Colaboração e revisão:
  • Paulo
5.191 exibições
    • ½ Tom
    • A
    • Bb
    • B
    • C
    • Db
    • D
    • Eb
    • E
    • F
    • F#
    • G
    • Ab
  • Adicionar à lista

    0 comentários

    Mostrar mais comentários

    Conseguiu tocar?

    1 Tocaram 0 Ainda não

    Grave um vídeo tocando Put Your Money Where Your Mouth Is e mande pra gente!

    00:00 / 00:00
    outros vídeos desta música
    repetir qualidade Automático
    Outros vídeos desta música
    00:00 / 00:00
    Automático
    OK