Enviar cifraEntrar

Bleeding Heart

Jimi Hendrix

Tab de baixo: Principal
exibições 256
(afinação D# G# C# F#) 

(intro)
  Slow Blues Q.=57
  F#7                      E7                     B7          E7
 12/8
  Gtr I
  E E E E E E E E E Q  E   Q  E Q  E Q  E E E E   E E E E E E Q  E E E E
|------------------------|----------------6-----|------------------------|
|------------------------|------6--6-9--9---9-6-|--------------------7-9-|
|-9---9-------------9--8-|-7--7-----------------|-------6---6-7--7-9-----|
|-------9---9-6---6------|----------------------|-7---7------------------|

                          (verse)
  B7         F#7           B7
  Q  E E E E Q.   E E E    E E E E E E E E E S S E E
|-----------------------||---------------------------|
|-----------------------||-------------------7---7-9-|
|------6-7-8-9----9-----||-------6---6-9---9---9-----|
|-7--7--------------9-8-||-7---7---------------------|

  E7
  E E E E E E E E E E E E
|--------------------------|
|-------6---6-9---9-9---9--|
|-7---7---------------9----|
|--------------------------|

  B7
  E E E E E E E E E S S E E   E E E E E E Q  S S E E E
|---------------------------|---------------------------|
|-------------------7---7-9-|---------7-8-9--9----------|
|-------6---6-9---9---9-----|-------9----------9---6-9--|
|-7---7---------------------|-7---7--------------7------|

  E7
  E E E E E E E E E S S E E   E E E E E E E E E E E E
|-------------------7---7-9-|-------------------9-7---|
|-------6---6-9---9---9-----|-------6---6-9---9-----9-|
|-7---7---------------------|-7---7-------------------|
|---------------------------|-------------------------|

  B7
  E E E E E E E E E S S E E   E E E E E E E E E Q  E
|---------------------------|------------------------|
|-------------------7---7-9-|-------------------7--7-|
|-------6---6-9---9---9-----|-------6---6-9---9------|
|-7---7---------------------|-7---7------------------|

  F#7                       E7
  E E E E E E E E E E E E   E E E E E E E E E E E E
|-------------------------|-------7-8-9-------------|
|-------------------------|-------------7-8-9-------|
|-9---9---7-8-9---9---9-8-|-7---7-------------5-6-9-|
|-------9-----------9-----|-------------------------|

  B7         E7           B7        F#7
  E E E Q  E Q  E E E E   Q  E Q  E Q  E E E E
|-----------------------|----------------------||
|-------------------7-8-|-9--9-7--7------------||
|-------6--6-7--7-9-----|-----------9--9---9---||
|-7---7-----------------|----------------9---9-||

(verse 2)
  B7                          E7
  E E E E E E E E E S S E E   E E E E E E E E E E E E
|---------------------------|-------------------9-7---|
|-------------------7---7-9-|-------6---6-9---9-----9-|
|-------6---6-9---9---9-----|-7---7-------------------|
|-7---7---------------------|-------------------------|

  B7
  E E E E E E E E E S S E E   E E E E E E E E E E E E
|---------------------------|-------------------------|
|-------------------7---7-9-|-------------------9-7---|
|-------6---6-9---9---9-----|-------6---6-9---9-----9-|
|-7---7---------------------|-7---7-------------------|

  E7
  E E E E E E E E E S S E E   E E E E E E E E E E E E
|-------------------7---7-9-|-------7-8-9-------------|
|-------6---6-9---9---9-----|-------------7-8-9-7-8-9-|
|-7---7---------------------|-7---7-------------------|
|---------------------------|-------------------------|

  B7
  E E E E E E E E E S S E E   E E E E E E E E E E E E
|---------------------------|-------------------------|
|-------------------7---7-9-|-------------------9-7---|
|-------6---6-9---9---9-----|-------6---6-9---9-----0-|
|-7---7---------------------|-7---7-------------------|

  F#7                      E7
  E E E E E E Q  E E E E   E E E E E E E E E E E E
|------------------------|-------7-8-9-------------|
|------------------------|-------------7-8-9-------|
|-9---9---7-8-9--9---9-8-|-7---7-------------7-8-9-|
|-------9----------9-----|-------------------------|

  B7         E7            F#7
  E E E Q  E E E E E E E   E E E  E  E  E  E  E  E  E  E  E
|------------------------|----------------------------------||
|------------------------|----------------------------------||
|-------6--6-7-6-7-8-7-8-|-9-9-9-10-10-10-11-11-11-12-12-12-||
|-7---7------------------|----------------------------------||

(guitar solo)
  B7                            E7
  E E E E E E E E E S S E S S   E E E E E E E E E E E E
|-----------------------------|-------7-8-9--------------|
|-------9-7---------9---9-7---|-------------7-8-9--------|
|-----------9-----9---9-----9-|-7---7-------------7-8-9--|
|-7---7-------7---------------|--------------------------|

  B7
  E E E E E E E E E E E E   E E E E E E E E E E E E
|-------------------------|-------------------------|
|-------9-x---------9-7---|-------9-7---------9---9-|
|-----------9-----------9-|-----------9---------9---|
|-7---7-------7---7-------|-7---7-------7---7-------|

  E7
  E E E E E E E E E S S E E   E E E E E E E E E S S E E
|-------------------7---7-9-|-------------------9-7------|
|-------6---6-9---9---9-----|-------6---6-9---9-----9-7--|
|-7---7---------------------|-7---7----------------------|
|---------------------------|----------------------------|

  B7
  E E E E E E E E E S S E E   E E E E E E E E E E E E
|---------------------------|-------------------------|
|-------------------7---7-9-|-------------------9-7---|
|-------6---6-9---9---9-----|-------6---6-9---9-----9-|
|-7---7---------------------|-7---7-------------------|

  F#7                           E7
  E E E E  E  E E E E E  E  E   E E E E E E E E E  Q   E
|-------9-10-11-------9-10-11-|-------7-8-9--------------|
|-----------------------------|--------------------------|
|-9---9---------9---9---------|-7---7-------7---7--------|
|-----------------------------|-------------------10--10-|

  B7         E7          F#7
  E E E Q  E Q  E Q  E   E E E E E E E E E e E E
|----------------------|-------------------------||
|----------------------|-------------------------||
|-------6--6-7--7-8--8-|-9-9-9-9-9-9-9-9-9-9-----||
|-7---7----------------|---------------------9-8-||

(verse 3)
  B7                          E7
  E E E E E E E E E S S E E   E E E E E E E E E E E E
|---------------------------|-------------------9-7---|
|-------------------7---7-9-|-------6---6-9---9-----9-|
|-------6---6-9---9---9-----|-7---7-------------------|
|-7---7---------------------|-------------------------|

  B7
  E E E E E E E E E S S E E   E E E E E E E E E E E E
|---------------------------|-------------------------|
|-------------------7---7-7-|-------------7-8-9-------|
|-------6---6-9---9---9-----|-------7-8-9---------9-9-|
|-7---7---------------------|-7---7-------------7-----|

  E7                F9  F1F9  E7E9
  E E E E E E E E E S S E E   E E E E E E E E E E E E
|-------------------7---7-9-|-------------------9-7---|
|-------6---6-9---9---9-----|-------6---6-9---9-----9-|
|-7---7---------------------|-7---7-------------------|
|---------------------------|-------------------------|

  B7
  E E E E E E E E E S S E E   E E E E E E E E E E E E
|---------------------------|-------------------------|
|-------------------7---7-9-|-------------------9-7---|
|-------6---6-9---9---9-----|-------6---6-9---9-----9-|
|-7---7---------------------|-7---7-------------------|

  F#7                           E
  E E E E  E  E E E E E  E  E   E E E Q.   E E E E E E
|-------9-10-11-------9-10-11-|------------------------|
|-----------------------------|--------------------7-9-|
|-9---9---------9---9---------|-7------------7-8-9-----|
|-----------------------------|------------------------|

  B7         E7   E#7    F#7 C#C9  B9
  E E E Q  E Q  E Q  E   E E E E E E  H.        W
|----------------------|----------------------|------*|
|----------------------|--------------9-------|------*|
|-------6--6-7--7-8--8-|-9--------------------|------*|
|-7---7----------------|-----9-8---7-(7)------|------*|

W - whole; H - half; Q - quarter; E - 8th; S - 16th; T - 32nd; X - 64th; a - acciaccatura
+ - note tied to previous; . - note dotted; .. - note double dotted
Uncapitalized letters represent notes that are staccato (1/2 duration)
Irregular groupings are notated above the duration line
Duration letters will always appear directly above the note/fret number it represents the
duration for.  Duration letters with no fret number below them represent rests.  Multi-
bar rests are notated in the form Wxn, where n is the number of bars to rest for.  Low
melody durations appear below the staff

 h   - hammer-on
 p   - pull-off
 b   - bend
 pb  - pre-bend
 r   - bend release (if no number after the r, then release immediately)
 /\  - slide into or out of (from/to "nowhere")
 s   - legato slide
 S   - shift slide
 - natural harmonic
[n]  - artificial harmonic
n(n) - tapped harmonic
 ~   - vibrato
 tr  - trill
 T   - tap
 TP  - trem. picking
 PM  - palm muting
\n/  - tremolo bar dip; n = amount to dip
 \n  - tremolo bar down
 n/  - tremolo bar up
/n\  - tremolo bar inverted dip
 =   - hold bend; also acts as connecting device for hammers/pulls
 <> - volume swell (louder/softer)
 x   - on rhythm slash represents muted slash
 o   - on rhythm slash represents single note slash

 |  - bar
||  - double bar
||o - repeat start
o|| - repeat end
*|  - double bar (ending)
 :  - bar (freetime)
 $  - Segno
 &  - Coda
Tempo markers -  = BPM(8/16=s8/s16), where s8 = swing 8ths, s16 = swing 16ths
  • 1
  • 2
  • 3
  • 4
  • 5
  • 6
  • 7
  • 8
  • 9
  • 10
  • 11
  • 12
    Composição: Elmore JamesColaboração e revisão:
    • Élison

    0 comentários

      mostrar mais comentários

      Conseguiu tocar?

      0tocaram0ainda não

      Grave um vídeo tocando Bleeding Heart e mande pra gente!

      00:00 / 00:00
      outros vídeos desta música
      repetirqualidadeautomática
      • automática
      Outro vídeos desta música
        00:00 / 00:00
        automática
        • automática
        Acordes para:violão e guitarra
        dificuldadeexibiçõescontribuições
        1 versão de Tab de baixoexibiçõescontribuições
        1 versão de Guitar Proformatodownloadscontribuição
        fecharplay/pause subir/descer velocidade
        fechar
        OK