Notificações Amigos pendentes

      João Bosco e Vinícius

      Sem Esse Coração

      882.048 exibições
      Tom: A# (com acordes na forma de G) Capotraste na 3ª casa
      (intro)
      
      (parte 1)
           Em
      
      E|-3----------------------------------------|
      B|-3----------------------------------------|
      G|-3----------------------------------------|
      D|-5---5-5h7-8--10/12-10-7h8p7--------------|
      A|-5---5-5---------------------10-----------|
      E|-3-3-3-3h5-6---8/10-8---------------------|
      
      
      (parte 2)
                        Em
      
      E|--------------3---------------------------|
      B|--------------3---------------------------|
      G|-8-8-8p7------3---------------------------|
      D|---------10p8-5---------------------------|
      A|--------------5---------------------------|
      E|--------------3---------------------------|
      
      
      (primeira parte)
      
      
           D9              Em7         G  D4 D   Em
      E|-------3---------------------6--6--5---3--|
      B|-----6---6-------------6-6/8-6--6--6-6-3--|
      G|---5-----------------3-------3--5--5-5-3--|
      D|-3-----------------5---------3--3--3-3-5--|
      A|-----------------------------5---------5--|
      E|-----------5h6-5-3-----------6---------3--|
      
      
               D9                         Em7
        Eu queria, amar um pouco menos você
      G            D4 D                            Em
        O meu coração, só apanha e vai parar de bater
      
      (segunda parte)
      
      G          D        C         D9(11)  Em
        Se eu pudesse, tirava esse meu coração
      G          D                 Am7   D9(11)   Em
        Pra deletar a saudade e o toque das suas mãos
      
      
           C4+             D11
      E|------------------------------------------|
      B|------------------------------------------|
      G|----3-----3--------3-----3----------------|
      D|------7-----7---7----7-----7---7----------|
      A|--6-----6-----6---8----8-----8------------|
      E|------------------------------------------|
      
      
          C4+                  D11
      E|------------------------------------------|
      B|------------------------------------------|
      G|---3-----3---------3----3-----3-----3-----|
      D|-----7-----7---7----7-----7-----7-----7---|
      A|-6-----6-----6---8----8-----8-----8-----8-|
      E|------------------------------------------|
      
      
      E|------------------------------------------|
      B|------------------------------------------|
      G|-3----------------------------------------|
      D|---7--------------------------------------|
      A|-----8------------------------------------|
      E|------------------------------------------|
      
      
           C4+        D11
      E parava de sofrer!
           C4+        D11
      E parava de sofrer!
      
      (refrão)
      Em                   C
        E mesmo assim, sem esse coração
                G                       D D4 D D9
      Eu acho que vou continuar te amando
      Em                   C
        E mesmo assim, sem esse coração
                G                      D D4 D D9
      Eu acho que vou continuar chorando
      Em                   C
        E mesmo assim, sem esse coração
                G                       D D4 D D9
      Eu acho que vou continuar te amando
      Em                   C
        E mesmo assim, sem esse coração
                G                      D D4 D D9
      Eu acho que vou continuar chorando
      
      (* logo depois do refrão, tem esse solo,
      bem parecido com o do início)
      
      (parte 1)
          Em
      
      E|-3----------------------------------------|
      B|-3----------------------------------------|
      G|-3----------------------------------------|
      D|-5---5-5h7-8--10/12-10-7h8p7--------------|
      A|-5---5-5---------------------10-----------|
      E|-3-3-3-3h5-6---8/10-8---------------------|
      
      
      (parte 2)
                 Em
      
      E|-----3---3---------------------------|
      B|---------3---------------------------|
      G|---------3---------------------------|
      D|-7h8-----5---------------------------|
      A|---------5---------------------------|
      E|---------3---------------------------|
      
      
      (* a partir daí, a música repete as pts 1, 2 e o refrão)
      
      (solo final)
      
      
         Em                           Am7/E
      E|-3----------------------------3-----------|
      B|-3----------------------------4-----------|
      G|-3----------------------------3-----------|
      D|-5---5-5h7-8--10/12-10-7h8p7--5-----------|
      A|-5---5-5----------------------3-----------|
      E|-3-3-3-3h5-6---8/10-8---------3-----------|
      
      
        Composição: Breno / DeLucaColaboração e revisão:
        • baiano
        • JefersonLuiz
        • Vinii
        • GIL MIDI
        • +5

        Comentários 8

        140 .
        • super39 super39: Em 07/02/2012 10:12

          gente tenta com as notas:
          G G AM C GG...
          e parava de sofrer:F G e a segunda vez:F GG
          refrao: AM F C G

        • marcelf4 marcelf4: Em 26/09/2011 19:21

          Qual violão e esse da video aula?

        • jhean_scarface jhean_scarface: Em 20/08/2011 15:56

          Aprendi certinho', Obrigado Fofão :D toca muito !!

        • osmardomar osmardomar: Em 10/04/2011 20:34

          chata demais

        • keniaa keniaa: Em 15/03/2011 18:19

          otima de tocar

        • lovereal lovereal: Em 26/02/2011 20:21

          Meu nome é Miss Alegria
          entrar em contato comigo através do meu endereço de e-mail
          (joy_x1awaza/yahoo/com) para
          imagem e discussão ok

        • Paulo Ricardo Paulo Ricardo: Em 06/02/2011 13:07

          top q eu e meu parca tocamos bom d++

        • yanvictor yanvictor: Em 21/12/2010 02:55

          pra onde eu levo o violão, essa é das mais pedidas.

        140 cancelar

        conseguiu tocar?

        • •••
        José César Ferreira Barros953 visualizações
          ver covers de outras músicas »
          0:00 / 0:00
          1 versão de Guitar Proformatodownloadscontribuição
          play/pausefechar subir/descer velocidade
          6ª corda E5ª corda A4ª corda D3ª corda G2ª corda B1ª corda E
            acordes
            publicidade
            fechar
            ok