Cifra Club

Blaze Of Glory

Jon Bon Jovi

Cifra: Principal (violão e guitarra)
tom: C
Intro

Dm
--------------------8--8/10---------------------------------------
--8/10--10-10---10-----------10-----6/8--8-8---8--5--5/6/5--3-------
------------------------------------------------------------------
------------------------------------------------------------------
------------------------------------------------------------------
------------------------------------------------------------------
             Dm
INTRO2: 
-------------------------------------------------------------------------------------
-----------------------5/7--------------------------5/7--------------------------5/7-
-----------------------5/7--------------------------5/7--------------------------5/7-
------0---0-3p0------0-5/7------0h3-0---0-3p0-----0-5/7------0h3-0---0-3p0-----0-5/7-
--0h3-----------3p0---------0h3---------------3p0--------0h3---------------3p0-------
-------------------------------------------------------------------------------------

-------------
----------3--
----------2--
-----0h3--0--
-0h3---------
-------------

Verse1: I [Dm] wake up in the morning
        And I [C9] raise my weary head
        I've got an [G] old coat for a pillow
        And the [dm] earth was last night's bed
        I [F] don't know where I'm going
        Only [C9] God knows where I've been
        I'm a [G] devil on the run
        A six gun lover
        A [Dm] candle in the wind

        

Verse2: When you've [Dm] brought into this world
        They [C9] say you're born in sin
        Well at [G] least they gave me something
        I didn't have to [Dm] steal or have to win
        Well they [F] tell me that I'm wanted
        Yeah, [C9] I'm a wanted man
        I'm a [G] colt in your stable
        I'm what Cain was to Abel
        Mister [Dm] catch me if you can

Chorus: I'm going [G] down in a blaze of [D] glory
        Take me [G] now but know the [D] truth
        I'm going [G] out in a blaze of [D] glory
        Lord I [C9] never drew first
        But I drew first blood
        I'm [G] no one's sone
        Call me young gun

Verse3: You [Dm] ask about my conscience
        And I [C9] offer you my soul
        You ask if I'll [G] grow to be a wise man
        Well I [Dm] ask if I'll grow old
        You [F] ask me if I've known love
        And what it's like to [C9] sing songs in the rain
        Well, I've [G] seen love come
        And I've seen it shot down
        I've [Dm] seen it die in vain

Chorus: Shot [G] down in a blaze of [D] glory
        Take me [G] now but know the [D] truth
        'Cause I'm going [G] down in a blaze of [D] glory
        Lord I [C9] never drew first
        But I drew first blood
        I'm the [G] devil's son
        Call me young gun       

Verse4: Each [Dm] night I go to bed
        I pray the [C9] Lord my soul to keep
        No I ain't [G] looking for forgiveness
        But be[dm]fore I'm six foot deep
        Lord, I [F] got to ask a favor
        And I [C9] hope you'll understand
        'Cause I've [G] lived life to the fullest
        Let this [Dm] boy die like a man
        [G] Staring down a bullet
        Let me [Dm] make my final stand

Chorus: Shot [G] down in a blaze of [D] glory
        Take me [G] now but know the [D] truth
        I'm going [G] out in a blaze of [D] glory
        Lord I [C9] never drew first
        But I drew first blood
        and I'm [G] no one's son
        Call me young [D] gun [C9]
        I'm a young [G] gun [D]
        [D] [C9] [G]
00:00 / 00:00
Outros vídeos desta música
Repetir
Outros vídeos desta música
Composição de Jon Bon Jovi
Colaboração e revisão:
  • Renan Peixoto
48.691 exibições
    • ½ Tom
    • A
    • Bb
    • B
    • C
    • Db
    • D
    • Eb
    • E
    • F
    • F#
    • G
    • Ab
  • Adicionar à lista

    0 comentários

    Ver todos os comentários

    Entre para oCifra Club PRO

    Tenha acesso a benefícios exclusivos no App e no Site

    • Chega de anúncios

    • Prioridade de compra em lançamentos

    • Mais recursos no app do Afinador

    • Atendimento Prioritário

    • Descontos nos produtos Cifra Club

    • Ajude a produzir mais conteúdo

    00:00 / 00:00

    Cifra Club Pro

    Aproveite o Cifra Club com benefícios exclusivos e sem anúncios
    Cifra Club Pro
    Aproveite o Cifra Club com benefícios exclusivos e sem anúncios
    OK