Cifra Club

You' ve got another thing comin

Judas Priest

Cifra: Principal
exibições 17.288
Tom: A
Standard tuning (low to high) EADGBE

Intro riff
E|-----------------------------------------------------------------------------------
B|-----------------------------------------------------------------------------------
G|-----------------------------------------------------------------------------------
D|-----------------------------------------------------------------------------------
A|-----------------------------------------------------------------------------------
E|-2-2-2-2-2-2-2-2-2-2-2-2-2-2-2-2-2-2-2-2-2-2-2-2-2-2-2-2-2-2-2-2-2-2-2-2-2-2-2-2---
It's a little exaggerated-listen for timing

E|-----------------------------------------------------------------------------------
B|-----5------------------------------------------5----------------------------------
G|-----4--------4--------------2------------------4----4--------2--------------------
D|-----2--------4--------------2------2-----2-----2----4--------2------2-----2-------
A|--------------2---------4----------------------------2---4-------------------------
E|------------------------2-------0h2----2-----------------2-------0h2----2----------

verse riff 1
E|-----------------------------------------------------------------------------------
B|-----------------------------------------------------------------------------------
G|-----------------------------------------------------------------------------------
D|-----------------------------------------------------------------------------------
A|-----------------------------------------------------------------------------------
E|-2--2--2--2--2--2--2--2--2--2--2--2--2--2--2--2--2--2--2--2--2--2--2--2--2--2--2---

Verse riff 2
E|-----------------------------------------------------------------------------------
B|-----------------------------------------------------------------------------------
G|-----------------------------------------------------------------------------------
D|-----------------------------------------------------------------------------------
A|--------h2-----------h2------------------------------------------------------------
E|--2----2h2-----2----4h2------------------------------------------------------------

chorus
E|-----------------------------------------------------------------------------------
B|-------------3-------------------3-------------------------------------------------
G|------4------2----4--------------2-----4-------6-----------------------------------
D|------4------0----4----4----4----0-----4-------6-----------------------------------
A|------2-----------2----4----4----------2-------4-----------------------------------
E|-----------------------2----2------------------------------------------------------

 Bridge lead B7 D/F# A F# B7 D/F# A C#
E|-----------------------------------------------------------------------------------
B|---4~~h2---------4^~~~~~ shake heavy-----------------------------------------------
G|-----------------------------------------------------------------------------------
D|-----------------------------------------------------------------------------------
A|-----------------------------------------------------------------------------------
E|-----------------------------------------------------------------------------------


song structure
Intro Riff
verse riff 1
verse riff 2
verse riff 1
verse riff 2
verse riff 1
verse riff 2
chorus
verse riff 2
verse riff 1
verse riff 2
verse riff 1
verse riff 2
verse riff 1
verse riff 2
chorus
bridge
solo
verse riff 1
verse riff 2
verse riff 1
verse riff 2
verse riff 1
verse riff 2
chorus
outro( verse riff 2)


Lyrics-
One life I'm gonna live it up
I'm takin' flight I said i'll never get enough
Stand tall I'm young and kinda proud
I'm on top as long as the music's loud

If you think I'll sit around as the world goes by
You're thinkin' like a fool cause it's a case of do or die
Out there is a fortune waitin' to be had
You think I'll let it go you're mad
You've got another thing comin'

That's right here's where the talkin' ends
Well listen this night there'll be some action spent
Drive hard I'm callin' all the shots
I got an ace card comin' down on the rocks

If you think I'll sit around while you chip away my brain
Listen I ain't foolin' and you'd better think again
Out there is a fortune waitin' to be had
You think I'll let it go you're mad
You got another thing comin

In this world we're livin' in we have our share of sorrow
Answer now is don't give in aim for a new tomorrow

Oh so hot no time to take a rest yeah
Act tough ain't room for second best
Real strong got me some security
Hey I'm a big smash I'm goin' for infinity yeah

If you think I'll sit around as the world goes by
You're thinkin' like a fool cause it's a case of do or die
Out there is a fortune waitin' to be had
You think I'll let it go you're mad
You've got another thing comin'
Acordes para:
    Composição: Glenn Tipton / Håkan Lundqvist / Kenneth DowningColaboração e revisão:
    • gabriel santos

    0 comentários

      mostrar mais comentários

      Conseguiu tocar?

      2tocaram0ainda não

      Grave um vídeo tocando You' ve got another thing comin e mande pra gente!

      00:00 / 00:00
      outros vídeos desta música
      repetirqualidadeautomática
      Outro vídeos desta música
        00:00 / 00:00
        automática
        OK