Cifra Club

Quando Eu Te Encontrar

Juninho Cassimiro

Cifra: Principal (violão e guitarra)
tom: B
[Intro] B7M  G#m11  E9  F#4 

B7M                                      G#m11
Quando eu irei contemplar a face do meu Deus?
E9
Tenho sede de ti
F#4 
Minh'alma suspira por ti
B7M
Meu Deus e meu Senhor
                 G#m11
Com ardor eu vos procuro
E9
Tenho sede de ti
F#4
Minh'alma suspira por ti
    E9  D#m7           
Por ti
           C#m7  D#m7            C#m7      F#4
Pois o que há    em mim, é o meu nada e o pó
           E9
Quando eu te encontrar
                           D#m7
A minha alma logo te contemplará
              C#m7
Saciará minha sede
                 D#m7
Meu louvor será eterno
            C#m7
A alma enamorada
       F#4
Oh oh oh
            E9
Quando eu te encontrar
                              D#m7
A minha lágrima o Senhor enxugará
                  C#m7
Terá fim toda tristeza
               D#m7
Vou ver a tua gloria 
             C#m7
Ver como és belo
       F#4
Oh oh oh
            E9
Quando eu te encontrar
                            D#m7
O imperfeito enfim desaparecerá
                  C#m7  D#m7
Quando eu te encontrar
                  C#m7  E  F#4
Quando eu te encontrar

[Solo] B7M  G#m7  E9  F#4 

B7M
Meu Deus e meu Senhor
                 G#m11
Com ardor eu vos procuro
E9
Tenho sede de ti
F#4 
Minh'alma suspira por ti
    E9  
Por ti
           C#m7  D#m7  E        C#m7  D#m7     F#4
Pois o que há    em mim, é o meu nada e o pó
           E7M
Quando eu te encontrar
                           D#m7
A minha alma logo te contemplará
              C#m7
Saciará minha sede
                 D#m7
Meu louvor será eterno
            C#m7
A alma enamorada
       F#4
Oh oh oh
            E9
Quando eu te encontrar
                              D#m7
A minha lágrima o senhor enxugará
                  C#m7
Terá fim toda tristeza
               D#m7
Vou ver a tua gloria
             C#m7
Ver como és belo
       F#4
Oh oh oh
            E7M
Quando eu te encontrar
                            D#m7
O imperfeito enfim desaparecerá
                  C#m7  D#m7
Quando eu te encontrar
                  C#m7  F#sus4
Quando eu te encontrar
                      E7M  Badd9/D#  C#m7  F#4  
Minh'alma se alegrará

[Riff 1]

          B7M
E|----------------------------------------------------------------|
B|----0-----0-----0-----0-----------------------------------------|
G|------3-----3-----3-----3---------------------------------------|
D|-------4------4-----4-----4-------------------------------------|
A|----------------------------------------------------------------|
E|----------------------------------------------------------------|

        G#m11                  E9                         F#9/11
E|---------------------------2---2--0-----------------------------|
B|----2-----2----0-2-2h4-------0------4--2--0--2-2h4--0---0-----0-|
G|------3-----3-----------------------------------------1---1-----|
D|---------------------------2------------------------4-------4---|
A|----------------------------------------------------------------|
E|----4----------------------0------------------------------------|

[Riff 2]

          E9                         D#m7
E|----------------------------------------------------------------|
B|----4h5p4/2h4--4h5p4/2h4---4h5p4---4h5p4-------4h5p4------------|
G|-----------------------------------------6-4---------6-4--------|
D|----------------------------------------------------------------|
A|----------------------------------------------------------------|
E|----------------------------------------------------------------|

[Riff 3]

                 B7M(9)
E|---2--0------------------------------2--------------------------|
B|--------4--2-0h2-2---2-2h4--------2-----------------------------|
G|-------------------4--------1-3-4-------------------------------|
D|---------------------------4------------------------------------|
A|----------------------------------------------------------------|
E|----------------------------------------------------------------|

                 G#m11               E                      F#4
E|---2--0-------------------------------2-2-0---------------------|
B|--------4--2-0h2-2---2-2h4--0-0-2-4-5-------4-2-0-0h2-2h4-------|
G|-------------------4----------------------------------------1-4-|
D|----------------------------------------------------------4-----|
A|----------------------------------------------------------------|
E|----------------------------------------------------------------|
00:00 / 00:00
Outros vídeos desta música
Repetir
Outros vídeos desta música
Composição de Juninho Cassimiro
Colaboração e revisão:
  • Gabriel Pimenta
  • João Costa
  • Bruno Gonçalves
80.398 exibições
    • ½ Tom
    • A
    • Bb
    • B
    • C
    • Db
    • D
    • Eb
    • E
    • F
    • F#
    • G
    • Ab
  • Adicionar à lista

    0 comentários

    Ver todos os comentários

    Entre para oCifra Club PRO

    Tenha acesso a benefícios exclusivos no App e no Site

    • Chega de anúncios

    • Prioridade de compra em lançamentos

    • Mais recursos no app do Afinador

    • Atendimento Prioritário

    • Descontos nos produtos Cifra Club

    • Ajude a produzir mais conteúdo

    00:00 / 00:00

    Cifra Club Pro

    Aproveite o Cifra Club com benefícios exclusivos e sem anúncios
    Cifra Club Pro
    Aproveite o Cifra Club com benefícios exclusivos e sem anúncios
    OK