Cifra Club

No puedo dejar el Rock

Los Suaves

Cifra: Principal (violão e guitarra)
tom: B
VERSO
E|--------------------------|
B|--------------------------|
G|-------------------7------|
D|----7----4-----2---7------|
A|----7----4-----2---5------|
E|----5----2-----0----------|

PUEDE A  AD NA IR HACIA ARRIBA EN EL D LOJ
PUEDES HACER QUE NUNCA SALGA EL G  
PUEDE A  SUERTE LLEGAR A TU RINCÓN
EL PARAISO HACE TIEMPO QUE CERRÓ

PUENTE
E|-----------------|
B|-----------------|
G|----4------------|
D|----4-----2------|
A|----2-----2------|
E|----------0------|

PUEDES ATRAPAR EL VIENTO
LLEVAR A CASA EL MAR
EVITAR QUE PASE EL TIEMPO
PERO NO PUEDES NO PUEDES DEJAR

ESTRIBILLO
E|-------------------|
B|-------------------|
G|---------7----9----|
D|----7----7----9----|
A|----7----5----7----|
E|----5--------------|

NO PUEDES DEJAR EL ROCK

VERSO
E|--------------------------|
B|--------------------------|
G|-------------------7------|
D|----7----4----2----7------|
A|----7----4----2----5------|
E|----5----2----0-----------|

PUEDE A  LLUVIA DE AYER MOJARTE HOY
Y A S ESTD LA S ENTRAR EN TU HABITACIÓN
PUEDE A  NOCHE LLEGAR A VER EL G  
EL PARAISO HACE TIEMPO QUE CERRÓ

PUENTE
E|-----------------|
B|-----------------|
G|----4------------|
D|----4-----2------|
A|----2-----2------|
E|----------0------|

PUEDES ATRAPAR EL VIENTO
LLEVAR A CASA EL MAR
EVITAR QUE PASE EL TIEMPO
PERO NO PUEDES NO PUEDES DEJAR

ESTRIBILLO
E|-------------------|
B|-------------------|
G|---------7----9----|
D|----7----7----9----|
A|----7----5----7----|
E|----5--------------|
Compositor não encontrado.
4 exibições
    • ½ Tom
    • A
    • Bb
    • B
    • C
    • Db
    • D
    • Eb
    • E
    • F
    • F#
    • G
    • Ab
  • Adicionar à lista

    0 comentários

    Ver todos os comentários

    Conseguiu tocar?

    0 Tocaram 0 Ainda não

    Grave um vídeo tocando No puedo dejar el Rock e nos envie!

    00:00 / 00:00
    Outros vídeos desta música
    Repetir Qualidade Automático
    Outros vídeos desta música
    00:00 / 00:00
    Automático

    Cifra Club Pro

    Aproveite o Cifra Club com benefícios exclusivos e sem anúncios
    Cifra Club Pro
    Aproveite o Cifra Club com benefícios exclusivos e sem anúncios
    OK