Cifra Club

Ourense-Bosnia

Los Suaves

Cifra: Principal (violão e guitarra)
tom: Am
Arpegio :
    C                       F
E|-----------------------|-------------------------|
B|------------1----------|-------------1-----------|
G|----------0---0--------|----------2-----2--------|
D|-------2---------2-----|-------3-----------3-----|
A|----3---------------3--|----3-----------------3--|
E|-0---------------------|-1-----------------------|


        Los Acordes, son los mismos que en el arpegio, C y F


        Lo siento, ya se me olvidaba poner el riff de la parte que va
   a toda leche...

        Basicamente es una quinta y una cuarta pero con algo rato, os pongo
   ahi el esquema de los "acordes" y vosotros ya sacais el ritmillo.

    G5   G5*  A4   A4*
E|---------------------|
B|---------------------|
G|---------------------|
D|-5----5----5----5----|
A|-5----5----5----5----|
E|-3----4----5----6----|
        No se si estos acordes tienen un nombre especifico pero bueno...

        Basicamente el riff es: G5 G5* A4 A4*

==============================================================================

                        LOS SUAVES : Ourense-Bosnia (2)
E|-----------------------------|

VERSO
(Su nombre era Isaac...)
E|----------------------------0--------|
B|------------0-----------0-----0------|
G|--------0-----0---0---2---2-----2----|
D|------2---2-----2---3----------------|
A|----3--------------------------------|
E|-------------------------------------|

CAMBIO
(Toques de trompetas...)
    C      G  F       G  C        G  F
E|------------------------------------------------|
B|------------------------------------------------|
G|------------------------------------------------|
D|------------------------------------------0-----|
A|----------------------------------------2---2---|
E|--------------------------------------3---------|

CAMBIO
(No crié a mi hijo...)
E5 C5 C#5 D5
Compositor não encontrado.
    • ½ Tom
    • Am
    • Bbm
    • Bm
    • Cm
    • C#m
    • Dm
    • Ebm
    • Em
    • Fm
    • F#m
    • Gm
    • G#m
  • Adicionar à lista

    0 comentários

    Ver todos os comentários

    Conseguiu tocar?

    0 Tocaram 0 Ainda não

    Grave um vídeo tocando Ourense-Bosnia e nos envie!

    00:00 / 00:00
    Outros vídeos desta música
    Repetir Qualidade Automático
    Outros vídeos desta música
    00:00 / 00:00
    Automático

    Cifra Club Pro

    Aproveite o Cifra Club com benefícios exclusivos e sem anúncios
    Cifra Club Pro
    Aproveite o Cifra Club com benefícios exclusivos e sem anúncios
    OK