Cifra Club

Mary Melody

Mad Caddies

Tab de baixo: Principal
Intro:
G|-------------------------------------------------------------------------|
D|-------------------------------------------------------------------------|
A|---7------6------777--------------4--------------7-777-----7-777---------|
E|--------------------------4~--------------2---7-------5-555-----7-777----|

Verso 1:
G|-------------------------------------------------------------------------|
D|-------------------------4-----------------------------------------------|   (2x)
A|-7-7-76-6-67-7---4-4-4-4--4----7-777-----7-777---------------------------|
E|--7-7--6-6--7-7-4-4---4-4--7-4------5-555-----7-777----------------------|

Ponte:
G|-------------------------------------------------------------------------|
D|-------------------------------------------------------------------------|
A|--4-4-4-4---7-7-7~--7-5------4-4-4-4---7-7-------------------------------|
E|-4-4---4-4-5-5----------7-5-4-4---4-4-5-5--7~~~--------------------------|

Refrão:
G|-------------------------------------------------------------------------|
D|-------------------------------------------------------------------------|
A|-7>------4>--3>-2>-7>------4>--3~--2~------------------------------------|
E|-----4>----------------4>--------------0---------------------------------|

Verso 2:
G|-------------------------------------------------------------------------|
D|-------------------------4-----------------------------------------------|   (2x)
A|-7-7-76-6-67-7---4-4-4-4--4----7-777-----7-777---------------------------|
E|--7-7--6-6--7-7-4-4---4-4--7-4------5-555-----7-777----------------------|

Ponte:
G|-------------------------------------------------------------------------|
D|-------------------------------------------------------------------------|
A|--4-4-4-4---7-7-7~--7-5------4-4-4-4---7-7-------------------------------|
E|-4-4---4-4-5-5----------7-5-4-4---4-4-5-5--7~~~--------------------------|

Refrão:
G|-------------------------------------------------------------------------|
D|-------------------------------------------------------------------------|
A|-7>------4>--3>-2>-7>------4>--3~--2~--0~--2-2-2-2-2-2-------------------|
E|-----4>----------------4>------------------------------------------------|

Outro:
G|-------------------------------------------------------------------------|
D|-------------------------------------------------------------------------|   (3x)
A|-7-7-----4-4-3-3-2-2-2-2-7---444-333-------------------------------------|
E|-----4-4-----------------------------------------------------------------|

G|-------------------------------------------------------------------------|
D|-------------------------------------------------------------------------|
A|-7-7-----4-4-3-3-2-2-2-0-------------------------------------------------|
E|-----4-4-----------------2-0~~~------------------------------------------|
Composição de Chuck Robertson / Sascha Lazor
Colaboração e revisão:
  • Jefferson Sousa
81 exibições

0 comentários

Ver todos os comentários

Conseguiu tocar?

0 Tocaram 0 Ainda não

Grave um vídeo tocando Mary Melody e nos envie!

00:00 / 00:00
Outros vídeos desta música
Repetir Qualidade Automático
Outros vídeos desta música
00:00 / 00:00
Automático

Cifra Club Pro

Aproveite o Cifra Club com benefícios exclusivos e sem anúncios
Cifra Club Pro
Aproveite o Cifra Club com benefícios exclusivos e sem anúncios
OK