Cifra Club

Parece Namoro

Marília Mendonça

Cifra: Principal (violão e guitarra)
exibições 69.361
Tom: Cm (forma dos acordes no tom de Bm) Capotraste na 1ª casa
[Intro] G  A  F#m7  Bm

   G             A
E|---------x-------------x----------------------------|
B|-------3-x-3/5-------5-x-5/7------------------------|
G|-----0---x---------6---x----------------------------|
D|---0-----x-------7-----x----------------------------|
A|---------x-----0-------x----------------------------|
E|-3-------x-------------x----------------------------|

   F#m7            Bm
E|----------x-----------------------------------------|
B|--------2-x-2h3--------3--3p2-----------------------|
G|------2---x----------4--------4-2-------------------|
D|----2-----x--------4--------------------------------|
A|----------x------2----------------------------------|
E|--2-------x-----------------------------------------|

[Primeira Parte]

             G
Você sempre vem
             A
Você sempre volta
            F#m7              Bm
É um vai e vem que não sai de órbita

          G                 A
Me acostumei, nem tranco a porta
         F#m7
Eita vida torta
            Bm
Não sai de moda

          G                A
Eu tenho tanto de você em mim
Você também
     F#m7               Bm
Tem tanto de mim em você
E sabe bem

[Pré-Refrão]

       Em     G          Bm
Que é tanto amor no coração
                A
Transborda e escorre pelos olhos
    Em      G
E quando abraça a solidão
Bm                  A
  Até assim sinto ciúmes
Não controlo

[Refrão]

                    G
A gente é tão um do outro
                   A
Que o resto é tão pouco
              Bm
Aqui tá tudo certo
Pode bagunçar de novo
        A  G
Tão um do  outro
          A
Parece namoro
                 Bm
Cada vez que cê volta
Tem sabor de beijo novo
        A  G
Tão um do  outro
                   A
Que o resto é tão pouco
              Bm
Aqui tá tudo certo
Pode bagunçar de novo
        A  G
Tão um do  outro
          A
Parece namoro
                 Bm
Cada vez que cê volta
Tem sabor de beijo novo

        A  G
Tão um do  outro

[Solo] G  A  Bm  A  G  A 

E|-x-----------------------------------2/3\2----------|
B|-7\5---3~------7p5---5------3h5p3h5--3/5\3--3-3/5\3-|
G|-x---7-----2/7-----7----2/4-----------------4-4/6\4-|
D|-x--------------------------------------------------|
A|----------------------------------------------------|
E|----------------------------------------------------|

E|----------------------------------------------------|
B|-7p5---3-----7-5~-----------------------------------|
G|-----7---2/7----------------------------------------|
D|----------------------------------------------------|
A|----------------------------------------------------|
E|----------------------------------------------------|

[Pré-Refrão]

       Em     G          Bm
Que é tanto amor no coração
                A
Transborda e escorre pelos olhos
    Em      G
E quando abraça a solidão
Bm                  A
  Até assim sinto ciúmes
Não controlo

[Refrão]

                    G
A gente é tão um do outro
                   A
Que o resto é tão pouco
              Bm
Aqui tá tudo certo
Pode bagunçar de novo
        A  G
Tão um do  outro
          A
Parece namoro
                 Bm
Cada vez que cê volta
Tem sabor de beijo novo
        A  G
Tão um do  outro
                   A
Que o resto é tão pouco
              Bm
Aqui tá tudo certo
Pode bagunçar de novo
        A  G
Tão um do  outro
          A
Parece namoro
                 Bm
Cada vez que cê volta
Tem sabor de beijo novo

        A  G
Tão um do  outro

( G  A  Bm )

E|-x-----------------------------------2/3\2----------|
B|-7\5---3~------7p5---5------3h5p3h5--3/5\3--3-3/5\3-|
G|-x---7-----2/7-----7----2/4-----------------4-4/6\4-|
D|-x--------------------------------------------------|
A|----------------------------------------------------|
E|----------------------------------------------------|

E|----------------------------------------------------|
B|-7p5---3-----7-5~-----------------------------------|
G|-----7---2/7-------2/4------------------------------|
D|-------------------2/4------------------------------|
A|----------------------------------------------------|
E|----------------------------------------------------|

                    G      A  Bm
A gente é tão um do outro
Acordes para:
    Composição: Juliano Tchula / Lucas Santos / Rafa Torres Colaboração e revisão:
    • Lucas Kappaun
    • Adriele Souza

    0 comentários

    mostrar mais comentários

    Conseguiu tocar?

    11 tocaram 6 ainda não

    Grave um vídeo tocando Parece Namoro e mande pra gente!

    00:00 / 00:00
    outros vídeos desta música
    repetir qualidade Automático
    Outros vídeos desta música
    00:00 / 00:00
    Automático
    OK