Cifra Club

Olha Para Mim

Melk Villar

Cifra: Principal
exibições 155.194
Tom: C
[Intro] F7M(9)  G  Em5+  F7M(9)
        F7M(9)  G  Em5+  F7M(9)
        F7M(9)  G  Em5+  F7M(9)

E|----------------------------------------------------------------------|
A|----------------------------------------------------------------------|
D|-----------------------------------------------------------10-10------|  
G|-10-10-10-9-9--9-9-9-9-9-9-12-7-7-7-7-7-7-9-9/10-10-10-9-9-------7--3-|
B|----------------------------------------------------------------------|
E|----------------------------------------------------------------------|

       F7M(9)                   G
Descobri que sabia andar e decidi caminhar
                     Em5+                     F7M(9)
Me fiz surdo para ouvir Tua voz, dizendo: "te amo"
                 C9                      G
Me enchi de mim mesmo, preenchi o Seu lugar no meu coração
     Em5+                ( Am7  G/B  C9  G )
Com coisas banais e me tornei carnal
          F7M(9)                          G
Enquanto tudo se esvai, como tudo que é fraco cai
          Em5+                            F7M(9)
Me encontrei no chão e me lembrei da Tua voz
             F7M(9)
Dizendo: "te amo"

           F7M(9)          G
Olha para mim, preciso de Ti
             Em5+                    Am7
Eu quero sentar em Tua mesa e te chamar de Pai
G          F7M(9)                G/F
Olha para mim, caminhei e me perdi
           Dm7
Olha para mim

               F7M(9)             G
Quero me entregar, quero me envolver
            Em5+                  F7M(9)
Quero entender esse amor que na cruz ensinou
               F7M(9)             G
Quero me entregar, quero me envolver
            Em5+                  F7M(9)
Quero entender esse amor que na cruz ensinou
               F7M(9)             G
Quero me entregar, quero me envolver
            Em5+                  F7M(9)
Quero entender esse amor que na cruz ensinou

E|-------------------------------------------------------|
B|-------------------------------------------------------|
G|-------------------------------------------------------|
D|-5-3-2-------------------------------------------------|
A|-------5-3-2-------------------------------------------|
E|-------------------------------------------------------|

           F7M(9)          G
Olha para mim, preciso de Ti
             Em5+                    Am7
Eu quero sentar em Tua mesa e te chamar de Pai
G          F7M(9)                G/F
Olha para mim, caminhei e me perdi
           Dm7  Em5+
Olha para mim
           F7M(9)
Olha para mim, uôôôuô

[Final] F7M(9)  G  F7M(9)  G  F7M(9)
Acordes para:
    Colaboração e revisão:

    0 comentários

      mostrar mais comentários

      Conseguiu tocar?

      9tocaram1ainda não

      Grave um vídeo tocando Olha Para Mim e mande pra gente!

      00:00 / 00:00
      outros vídeos desta música
      repetirqualidadeautomática
      Outro vídeos desta música
        00:00 / 00:00
        automática
        OK