Cifra Club

Olha Para Mim

Melk Villar

Cifra: Principal (violão e guitarra)
tom: C
[Intro] F7M(9)  G  Em5+  F7M(9)
        F7M(9)  G  Em5+  F7M(9)
       

E|----------------------------------------------------------------------|
B|----------------------------------------------------------------------|
G|-----------------------------------------------------------10-10------|
D|-10-10-10-9-9--9-9-9-9-9-9-12-7-7-7-7-7-7-9-9/10-10-10-9-9-------7--3-|
A|----------------------------------------------------------------------|
E|----------------------------------------------------------------------|

       F7M(9)                   G
Descobri que sabia andar e decidi caminhar
                     Em5+                     F7M(9)
Me fiz surdo para ouvir Tua voz, dizendo: "te amo"
                 C9                      G
Me enchi de mim mesmo, preenchi o Seu lugar no meu coração
     Em5+                ( Am7  G/B  C9  G )
Com coisas banais e me tornei carnal
          F7M(9)                          G
Enquanto tudo se esvai, como tudo que é fraco cai
          Em5+                            F7M(9)
Me encontrei no chão e me lembrei da Tua voz
             F7M(9)
Dizendo: "te amo"

           F7M(9)          G
Olha para mim, preciso de Ti
             Em5+                    Am7
Eu quero sentar em Tua mesa e te chamar de Pai
G          F7M(9)                G/F
Olha para mim, caminhei e me perdi
           Dm7
Olha para mim

               F7M(9)             G
Quero me entregar, quero me envolver
            Em5+                  F7M(9)
Quero entender esse amor que na cruz ensinou
               F7M(9)             G
Quero me entregar, quero me envolver
            Em5+                  F7M(9)
Quero entender esse amor que na cruz ensinou
               F7M(9)             G
Quero me entregar, quero me envolver
            Em5+                  F7M(9)
Quero entender esse amor que na cruz ensinou

(G F Em7 Dm7 C G/B )

E|-------------------------------------------------------|
B|--8-6-5------------------------------------------------|
G|--------7-5-4------------------------------------------|
D|-------------------------------------------------------|
A|-------------------------------------------------------|
E|-------------------------------------------------------|

           F7M(9)          G
Olha para mim, preciso de Ti
             Em5+                    Am7
Eu quero sentar em Tua mesa e te chamar de Pai
G          F7M(9)                G/F
Olha para mim, caminhei e me perdi
           Dm7  Em5+
Olha para mim
           F7M(9)
Olha para mim, uôôôuô

[Final] F7M(9)  G  F7M(9)  G  F7M(9)
00:00 / 00:00
Outros vídeos desta música
Repetir
Outros vídeos desta música
Composição de Melk Villar
202.692 exibições
  • Simplificar cifra
    • ½ Tom
    • A
    • Bb
    • B
    • C
    • Db
    • D
    • Eb
    • E
    • F
    • F#
    • G
    • Ab
  • Adicionar à lista

    0 comentários

    Ver todos os comentários
    00:00 / 00:00

    Cifra Club Pro

    Aproveite o Cifra Club com benefícios exclusivos e sem anúncios
    Cifra Club Pro
    Aproveite o Cifra Club com benefícios exclusivos e sem anúncios
    OK