Cifra Club

Santa Claus Is Coming To Town

Michael Bublé

Cifra: Principal (violão e guitarra)
tom: Bb (forma dos acordes no tom de A) Capotraste na 1ª casa
[Intro]

[Tab - Intro]

[Parte 1 De 2]
E|--x---x-x---x---x-x---x---x-x---x---x-x--------------|
B|--x---x-x---x---x-x---x---x-x---x---x-x--------------|
G|--x---x-x---x---x-x---x---x-x---x---x-x--------------|
D|--x---x-x---x---x-x---x---x-x---x---x-x--------------|
A|--x---x-x---x---x-x---x---x-x---x---x-x--------------|
E|-----------------------------------------------------|
    ↓   ↓ ↑    ↓   ↓ ↑   ↓   ↓ ↑   ↓   ↓ ↑

Parte 2 de 2
E|-x-x-x-x--x-x-x--x-x-x--x-x-x--x-x-x---x-----x-----x-|
B|-x-x-x-x--x-x-x--x-x-x--x-x-x--x-x-x---x-----x-----x-|
G|-x-x-x-x--x-x-x--x-x-x--x-x-x--x-x-x---x---x-x-x---x-|
D|-7-7---5--5---4--4---3--3---7--5---4-x---x-x---x-x---|
A|-------------------------------------x---x-8---7-x---|
E|-------------------------------------6---7-------4---|
   ↓ ↓ ↑  ↓  ↓ ↑ ↓  ↓ ↑  ↓  ↓ ↑ ↓  ↓ ↑ ↓  ↓ ↑ ↓ ↓ ↑ ↓ ↓ ↑

[Primeira Parte]

[Tab - Primeira Parte]

[Parte 1 De 2]
E|----x-x-x--x-x-x--x-x-x--x-x----x-x------x----x-x-x--|
B|----x-x-x--x-x-x--x-x-x--x-x-x--x-x----x-x-x--x-x-x--|
G|----x-x-x--x-x-x--x-x-x--x-x-x--x-x-x--x-x-x--x-x-x--|
D|-x--7---5--5---4--4---3--3---x--7---x--x---x--7---5--|
A|-x---------------------------7------x--4---5---------|
E|-5----------------------------------5----------------|
   ↓  ↓ ↑ ↓   ↓ ↑ ↓  ↓ ↑ ↓  ↓ ↑ ↓   ↓ ↑ ↓  ↓ ↑ ↓  ↓  ↑ ↓

Parte 2 de 2
E|---x------x-x----x------x------x------x--------------|
B|---x------x-x----x----x-x-x----x------x--------------|
G|-x-x-x--x-x-x----x----x-x-x----x------x--------------|
D|-x---x--x---4--x---x--4---x--x---x--x---x--x---------|
A|-8---7--7------x---x------7--x---x--x---x--x---------|
E|---------------6---7---------4---5--3---2--1---------|
   ↓ ↑ ↓  ↓ ↑ ↓   ↓ ↑ ↓  ↓ ↑ ↓  ↓  ↑ ↓  ↓ ↑ ↓  ↓ 

[Primeira Parte]

You better watch out

You better not cry

You better not pout

I'm telling you why

Santa Claus is coming 
        E7(9+)  G#7
To town

[Segunda Parte]

 A             A7(9)/C#
He's making a list
       D           Dm/F
He's checking it twice
      A         A7(9)/C#
He's gonna find out 
        D           Dm/F
Who's naughty or nice
A         F#m7    Bm7   E7 
  Santa Claus is coming   
    A   Bm7    A/C#  F
To town

[Terceira Parte]

    Em7       A7           D7M    D#°
He sees you when you're sleeping
         Em7       A7      D7M
And he knows when you're awake
     B7                  E7     
He knows if you've been bad or good
       F#m7(11)
So be good for goodness sake!

[Primeira Parte]

     A           A7(9)/C#
You better watch out
     D           Dm/F
You better not cry
     A          A7(9)/C#
You better not pout
     D            Dm/F
I'm telling you why
 A            F#m7    Bm7   E7
Cause Santa Claus is coming 
    A   F#m7  Bm7  E7   
To town
 
( A6  D7(9)  B7  E7  A  F#m7  Bm7  E7 )
( A6  D7(9)  B7  E7  A  Bm7    A/C#  F )

[Terceira Parte]

    Em7       A7          D7M    D#° 
He sees you when you're sleeping
         Em7       A7      D7M
And he knows when you're awake
     B7                  E7     
He knows if you've been bad or good
       F#m7     B7       E7
So be good for goodness sake!

[Primeira Parte]

     A           A7(9)/C# 
You better watch out
     D           Dm/F 
You better not cry
     A          A7(9)/C# 
You better not pout
     D            Dm/F
I'm telling you why
A         F#m7    Bm7   E7
  Santa Claus is coming 
    A    E7(9+)  G#7
To town

     A           A7(9)/C#
You better watch out
     D           Dm/F
You better not cry
     A          A7(9)/C#
You better not pout
     D            Dm/F
I'm telling you why
A         F#m7    Bm7    E7
  Santa Claus is coming
       A
I'm a big fat man 
                         C7  B7
With a long white beard               
            A     A/G  D/F#  Dm/F  E7                  
He's coming   to town

(Frase Final) 

[Tab - Frase Final]

E|-5-3-0-----------------------------------------------|
B|-------4-3\1-----------------------------------------|
G|-------------2-0----1-2------------------------------|
D|------------------2----------------------------------|
A|-----------------------------------------------------|
E|-----------------------------------------------------|

[Final] A
Composição de Haven Gillespie / J. Fred Coots
Colaboração e revisão:
  • Caico Antunes
  • Lucas Kappaun
1.050 exibições
    • ½ Tom
    • A
    • Bb
    • B
    • C
    • Db
    • D
    • Eb
    • E
    • F
    • F#
    • G
    • Ab
  • Adicionar à lista

    0 comentários

    Ver todos os comentários

    Conseguiu tocar?

    0 Tocaram 0 Ainda não

    Grave um vídeo tocando Santa Claus Is Coming To Town e nos envie!

    00:00 / 00:00
    Outros vídeos desta música
    Repetir Qualidade Automático
    Outros vídeos desta música
    00:00 / 00:00
    Automático
    Capítulos
    • Tocando a Mùsica
    • Dicas Iniciais
    • Tocando Introdução
    • Ensinando Introdução
    • Acordes da Primeira Parte
    • Tocando Primeira Parte
    • Ensinando Primeira Parte
    • Acordes Segunda Parte
    • Tocando Segunda Parte
    • Ensinando Segunda Parte
    • Acordes da Terceira Parte
    • Tocando Terceira Parte
    • Ensinando Terceira Parte
    • Dicas Repetições
    • Acordes Interlúdio
    • Tocando Interlúdio
    • Ensinando Interlúdio
    • Tocando Variação Terceira Parte
    • Ensinando Variação Terceira Parte
    • Acordes Finais
    • Tocando Final
    • Ensinando Final
    • Tocando Frase Final
    • Ensinando Frase Final
    • Encerramento

    Cifra Club Pro

    Aproveite o Cifra Club com benefícios exclusivos e sem anúncios
    Cifra Club Pro
    Aproveite o Cifra Club com benefícios exclusivos e sem anúncios
    OK