Cifra Club

Aprenda

Smooth Criminal

Michael Jackson

Cifra: Principal (violão e guitarra)
tom: A
(Riff)

E|--------------------------------------------|
B|--------------------------------------------|
G|--------------------------------------------|
D|--------------------------------------------|
A|-------------3-3---1-3-4-4---4-4-3-----1----|
E|--6-6-6-4-6-------------------------4-------|

Bbm                 G#/C
As he came into the window
           C#         G#/C   G#
It was the sound of a crescendo
Bbm               G#/C
He came into her apartement
            C#                G#/C  G#
He left the bloodstains on the carpet
Bbm                    G#/C
She ran underneath the table
         C#         G#/C  G#
He could see she was unable
Bbm                 G#/C
So she ran into the bedroom
        C#                 G#/C   G#
She was struck down, it was her doom

F#
Annie are you ok?

So, Annie are you ok
        G#
Are you ok, Annie?
F#
Annie are you ok?

So, Annie are you ok
        G#
Are you ok, Annie?
F#
Annie are you ok?

So, Annie are you ok?
        G#
Are you ok, Annie?
F#
Annie are you ok?
F
So, Annie are you ok?

Are you ok, Annie?

Bbm            G#
(Annie are you ok?)
          F#                  G#
(Will you tell us that you're ok?)
Bbm                    G#
(There?s a sign in the window)
         F#
(That he struck you)
       F
(A crescendo Annie)
Bbm                     G#
(He came into your apartment)
             F#                  G#
(He left the bloodstains on the carpet)
Bbm                    G#
(Then you ran into the bedroom)
          F#
(You were struck down)
       F
(It was your doom)

F#
Annie are you ok?

So, Annie are you ok
        G#
Are you ok, Annie?
F#
Annie are you ok?

So, Annie are you ok
        G#
Are you ok, Annie?
F#
Annie are you ok?

So, Annie are you ok?
        G#
Are you ok, Annie?
F#
Annie are you ok?

So, Annie are you ok?
        G#    F#
Are you ok, Annie?

F
You've been hit by

You've been hit by
                       Bbm
A smooth criminal...

E|--------------------------------------------|
B|--------------------------------------------|
G|--------------------------------------------|
D|--------------------------------------------|
A|-------------3-3---1-3-4-4---4-4-3-----1----|
E|--6-6-6-4-6-------------------------4-------|

Bbm                 G#/C
So they came into the outway
           C#         G#/C   G#
It was Sunday, what a black day
Bbm               G#/C
Mouth to mouth ressuscitation
            C#                G#/C  G#
Sounding heartbeats, intimidation

F#
Annie are you ok?

So, Annie are you ok
        G#
Are you ok, Annie?
F#
Annie are you ok?

So, Annie are you ok
        G#
Are you ok, Annie?
F#
Annie are you ok?

So, Annie are you ok?
        G#
Are you ok, Annie?
F#
Annie are you ok?
F
So, Annie are you ok?

Are you ok, Annie?

Bbm            G#
(Annie are you ok?)
          F#                  G#
(Will you tell us that you're ok?)
Bbm                    G#
(There?s a sign in the window)
         F#
(That he struck you)
       F
(A crescendo Annie)
Bbm                     G#
(He came into your apartment)
             F#                  G#
(He left the bloodstains on the carpet)
Bbm                    G#
(Then you ran into the bedroom)
          F#
(You were struck down)
       F
(It was your doom)

F#
Annie are you ok?

So, Annie are you ok
        G#
Are you ok, Annie?

F
You've been hit by

You've been hit by
                       Bbm
A smooth criminal...

E|--------------------------------------------|
B|--------------------------------------------|
G|--------------------------------------------|
D|--------------------------------------------|
A|-------------3-3---1-3-4-4---4-4-3-----1----|
E|--6-6-6-4-6-------------------------4-------|

[Solo]

E|--------------------------------------------|
B|--------------------------------------------|
G|----------------2-2-------------------------|
D|--4-5-5-4-0-2-0-----2-4-2-------------------|
A|--------------------------------------------|
E|--------------------------------------------|
Composição de Michael Jackson
288.399 exibições
    • ½ Tom
    • A
    • Bb
    • B
    • C
    • Db
    • D
    • Eb
    • E
    • F
    • F#
    • G
    • Ab
  • Adicionar à lista

    0 comentários

    Ver todos os comentários

    Conseguiu tocar?

    34 Tocaram 6 Ainda não

    Grave um vídeo tocando Smooth Criminal e nos envie!

    00:00 / 00:00
    Outros vídeos desta música
    Repetir Qualidade Automático
    Outros vídeos desta música
    00:00 / 00:00
    Automático

    Cifra Club Pro

    Aproveite o Cifra Club com benefícios exclusivos e sem anúncios
    Cifra Club Pro
    Aproveite o Cifra Club com benefícios exclusivos e sem anúncios
    OK