Cifra Club

Aprenda

I Know Its Gonna Happen Someday

Morrissey

Tab de baixo: Principal
I Know It's Gonna Happen Someday

Intro
G |-------------------------|-------------------------|
D |-3---------3-2-----------|-0-------2-3-5\----------|
A |---------3---------------|---------------------0-2-|
E |-------------------------|-------------------3-----|

Verse
G |-------------------------|-------------------------|
D |---------------------0-1-|-2-------2-------------2-|
A |-3-----------3-----3-----|-----------2---------3---|
E |-----------3-------------|-------------0-----------|

G |-----------------------0-|-1-----------------------|
D |-3-----------3-----3-3---|-------------5-----3-----|
A |-----------3-------------|-------------------------|
E |-------------------------|-------------------------|

Chorus
G |-------------1---------1-|-2---------2-3---------3-|
D |---------------------2---|---------2-----------2---|
A |-3-----------------------|-------------------------|
E |-------------------------|-------------------------|

G |-------------------------|-------------------------|
D |-0-----------------------|---------------------0-2-|
A |------3------2-----------|-------------------------|
E |-------------------------|-5-----3-----1-----------|

Please wait... A
G |-------------------------|-------------0-0-0-0-0-0-|
D |-3---------3-2-----------|-0-------2-3-------------|
A |---------3---------------|-------------------------|
E |-------------------------|-------------------------|

Please wait... B
G |-------------------------|-------------0-----------|
D |-3------(3)--2---------2-|-0-------2-3-------------|
A |---------------------3---|---------------------0-2-|
E |-------------------------|-------------------3-----|

G |-------------------------|-------------------------|
D |-----------------------2-|-3-----------3-----------|
A |-3-----------3-------3---|-----------3-----------3-|
E |-----------3-------------|-------------------------|

Wait...don't loose faith
G |-------------------------|-------------------------|
D |---------------------0-2-|-3-------0-2-3-------2-3-|
A |-3-----------3-----3-----|-------------------------|
E |-----------3-------------|-------------------------|

G |-------------------------|
D |-------555---------5-3-2-|
A |-----5-----5-------------|
E |-333---------3-3-3-------|

Outro
G |-------------------------|-------------------------|
D |-------------------------|--------------1----------|
A |-3-----------3-----3-4-5-|-6---------3-------3-4-5-|
E |-----------3-------------|-------------------------|



Order:
(Fade in)
[00:26] Verse
[00:43] Chorus
[01:01] Intro
[01:09] Verse
[01:27] Chorus
[01:44] Please Wait... B
[02:01] Wait...Don't Lose Faith
[02:14] Verse
[02:32] Chorus
[02:49] Please Wait... A
[02:57] Outro until end
Composição de Morrissey
412 exibições

0 comentários

Ver todos os comentários

Conseguiu tocar?

0 Tocaram 0 Ainda não

Grave um vídeo tocando I Know Its Gonna Happen Someday e nos envie!

00:00 / 00:00
outros vídeos desta música
repetir qualidade Automático
Outros vídeos desta música
00:00 / 00:00
Automático

Cifra Club Pro

Aproveite o Cifra Club com benefícios exclusivos e sem anúncios
Cifra Club Pro
Aproveite o Cifra Club com benefícios exclusivos e sem anúncios
OK