Enviar cifraEntrar

Ace of Spades

Motörhead

Tab de baixo: Principal
exibições 51.967
(Notas já na afinação 1/2 tom abaixo)

Introdução:

Parte 1:
Gb|---------------------------------------------------
Db|---------------------------------------------------
Ab|-7-7-7-7-7-7-7-7-7-5-7-7-7-7-7-7-7-7-7-5-----------
Eb|---------------------------------------------------

Parte 2:
Gb|---------------------------------------------------
Db|---------------------------------------------------
Ab|-7-7-7-7-7-7-7-7-7-5-7-7-7-7-7-/19-19\-------------
Eb|---------------------------------------------------

Parte 3:
Gb|---------------------------------------------------
Db|--------------------------------------------------- (2x)
Ab|-7-7-7-7-7-7-7-7-7-7-5-7-7-7-7-7-7-7-7-7-7-5-------  
Eb|---------------------------------------------------

Primeira parte:

Parte 1:
    Gb5
Gb|-7-7-7-7-7-7-7-7-7-7-7-----------------------------
Db|-5-5-5-5-5-5-5-5-5-5-5-----------------------------
Ab|---------------------------------------------------
Eb|---------------------------------------------------
    If you like to gamble, I tell you I'm your man
    You win some, lose some, 

Parte 2:
    Gb5
Gb|-7-7-7-7-------------------------------------------
Db|-5-5-5-5-------------------------------------------
Ab|---------------------------------------------------
Eb|---------------------------------------------------
   It's all the same to me

Parte 3:
Gb|---------------------------------------------------
Db|---------------------------------------------------
Ab|-7-7-7-7-7-7-7-7-7-7-5-7-7-7-7-7-7-7-7-7-7-5-------
Eb|---------------------------------------------------

Parte 4:
Gb|---------------------------------------------------
Db|---------------------------------------------------
Ab|-7-7-7-7-7-7-7-7-7-7-5-7-7-7-7-7-7-7-7-7-7-7-------
Eb|---------------------------------------------------

Parte 5:
    Db5                   Cb5 
Gb|---------------------------------------------------
Db|-7-7-7-7-7-7-7-7-7-7-7-5-5-5-5-5-5-5-5-5-5-5-------
Ab|-5-5-5-5-5-5-5-5-5-5-5-3-3-3-3-3-3-3-3-3-3-3-------
Eb|---------------------------------------------------
   The pleasure is to play, makes no difference what you say

Parte 6:
Gb|---------------------------------------------------
Db|---------------------------------------------------
Ab|-7-7-7-7-7-7-7-7-7-7-5-7-7-7-7-7-7-7-7-7-7-7-------
Eb|---------------------------------------------------

Parte 7:
    Db5                   Cb5
Gb|---------------------------------------------------
Db|-7-7-7-7-7-7-7-7-7-7-7-5-5-5-5-5-5-5-5-5-5-5-------
Ab|-5-5-5-5-5-5-5-5-5-5-5-3-3-3-3-3-3-3-3-3-3-3-------
Eb|---------------------------------------------------
   I don't share your greed, the only card I need is

Refrão:
Gb|---------------------------------------------------
Db|---------------------------------------------------  (2x)
Ab|-7-7-7-7-7-7-7-7-7-7-5-7-7-7-7-7-7-7-7-7-7-5-------
Eb|---------------------------------------------------

The ace of spades
The ace of spades

(Repetição da primeira parte)

Parte 1:
    Gb5
Gb|-7-7-7-7-7-7-7-7-7-7-7-----------------------------
Db|-5-5-5-5-5-5-5-5-5-5-5----------------------------- (3x)
Ab|---------------------------------------------------
Eb|---------------------------------------------------
   Playing for the high one, dancing with the Devil
   Going with the flow, 

Parte 2:
    Gb5
Gb|-7-7-7-7-7-----------------------------------------
Db|-5-5-5-5-5-----------------------------------------
Ab|---------------------------------------------------
Eb|---------------------------------------------------
    It's all a game to me

Parte 3:
Gb|---------------------------------------------------
Db|---------------------------------------------------
Ab|-7-7-7-7-7-7-7-7-7-7-5-7-7-7-7-7-7-7-7-7-7-5-------
Eb|---------------------------------------------------

Parte 4:
Gb|---------------------------------------------------
Db|---------------------------------------------------
Ab|-7-7-7-7-7-7-7-7-7-7-5-7-7-7-7-7-7-7-7-7-7-7-------
Eb|---------------------------------------------------

Parte 5:
    Db5                   Cb5
Gb|---------------------------------------------------
Db|-7-7-7-7-7-7-7-7-7-7-7-5-5-5-5-5-5-5-5-5-5-5-------
Ab|-5-5-5-5-5-5-5-5-5-5-5-3-3-3-3-3-3-3-3-3-3-3-------
Eb|---------------------------------------------------
   Seven or eleven, snake eyes watching you

Parte 6:
Gb|---------------------------------------------------
Db|---------------------------------------------------
Ab|-7-7-7-7-7-7-7-7-7-7-5-7-7-7-7-7-7-7-7-7-7-7-------
Eb|---------------------------------------------------

Parte 7:
    Db5                   Cb5
Gb|---------------------------------------------------
Db|-7-7-7-7-7-7-7-7-7-7-7-5-5-5-5-5-5-5-5-5-5-5-------
Ab|-5-5-5-5-5-5-5-5-5-5-5-3-3-3-3-3-3-3-3-3-3-3-------
Eb|---------------------------------------------------
   Double up or quit, double strake or split

Refrão:
Gb|---------------------------------------------------
Db|---------------------------------------------------
Ab|-7-7-7-7-7-7-7-7-7-7-5-7-7-7-7-7-7-7-7-7-7-5-------
Eb|---------------------------------------------------

The ace of spades
The ace of spades

Interlúdio:
Gb|---------------------------------------------------
Db|---------------------------------------------------  (2x)
Ab|-5h7-7-7-7-7-7-7-7-7-7-7-5h7-7-7-7-7-7-7-7-7-7-7---
Eb|---------------------------------------------------

Segunda parte:
Parte 1:
Gb|---------------------------------------------------
Db|---------------------------------------------------
Ab|-7--5-7---7-7-7-7-7-7-7-7--------------------------
Eb|---------------------------------------------------
   You know I born to lose, and gambling's made for fools
   But that's the way I like it baby
   I don't wanna live forever

Parte 2:
    Db5                               Eb5  Db5    Cb5  
Gb|---------------------------------------------------
Db|-7-7-7-7-7-7-7-7-7-7-7-7-7-7-7-7-7-9----7-7----5-5-
Ab|-5-5-5-5-5-5-5-5-5-5-5-5-5-5-5-5-5-7----5-5----3-3-
Eb|---------------------------------------------------

Parte 3:
    Bb5
Gb|---------------------------------------------------
Db|-4-4-4-4-4-4-4-4-4-4-4-4-4-4-4-4-4-4-4-4-4-4-------
Ab|-2-2-2-2-2-2-2-2-2-2-2-2-2-2-2-2-2-2-2-2-2-2-------
Eb|---------------------------------------------------
                        And don't forget the Joker
   
Solo de guitarra:

Parte 1:
    Ab5
Gb|-9-9-9-9-9-9-9-9-9-9-9-----------------------------
Db|-7-7-7-7-7-7-7-7-7-7-7-----------------------------
Ab|--------------------------------------------------- (3x)
Eb|---------------------------------------------------

Parte 2: Gb5  Ab5 (3x)

Gb|-9--7---9--7---9--7--------------------------------
Db|-7--5---7--5---7--5--------------------------------
Ab|---------------------------------------------------
Eb|---------------------------------------------------

Parte 3:
    Bb5
Gb|-11-11-11-11-11-11-11-11-11-11-11------------------
Db|-9--9--9--9--9--9--9--9--9--9--9-------------------  (3x)
Ab|--------------------------------------------------- 
Eb|---------------------------------------------------

Parte 4:
Gb|-11-11-11-11-11------------------------------------
Db|-9--9--9--9--9-------------------------------------  
Ab|--------------------------------------------------- 
Eb|---------------------------------------------------

Parte 5:
    Ab5
Gb|-9-9-9-9-9-9-9-9-9-9-9-----------------------------
Db|-7-7-7-7-7-7-7-7-7-7-7-----------------------------
Ab|--------------------------------------------------- (3x)
Eb|---------------------------------------------------

Parte 6:
Gb|-9--9--9--9--9-------------------------------------
Db|-7--7--7--7--7-------------------------------------
Ab|--------------------------------------------------- 
Eb|---------------------------------------------------

Parte 7:
Gb|---------------------------------------------------
Db|---------------------------------------------------
Ab|-7-7-7-7-7-7-7-7-7-7-5-7-7-7-7-7-7-7-7-7-7-5------- (2x)
Eb|---------------------------------------------------

(Repetição da primeira parte)

Parte 1:
    Gb5
Gb|-7-7-7-7-7-7-7-7-7-7-7-----------------------------
Db|-5-5-5-5-5-5-5-5-5-5-5-----------------------------  (3x)
Ab|---------------------------------------------------
Eb|---------------------------------------------------
   Pushing up the ante, I know you've got to see me
   Read 'em and weep, 

Parte 2:
    Gb5
Gb|-7-7-7-7-7-----------------------------------------
Db|-5-5-5-5-5-----------------------------------------
Ab|---------------------------------------------------
Eb|---------------------------------------------------
    The dead man's hand again

Parte 3:
Gb|---------------------------------------------------
Db|---------------------------------------------------
Ab|-7-7-7-7-7-7-7-7-7-7-5-7-7-7-7-7-7-7-7-7-7-5-------
Eb|---------------------------------------------------

Parte 4:
Gb|---------------------------------------------------
Db|---------------------------------------------------
Ab|-7-7-7-7-7-7-7-7-7-7-5-7-7-7-7-7-7-7-7-7-7-7-------
Eb|---------------------------------------------------

Parte 5:
    Db5                   Cb5
Gb|---------------------------------------------------
Db|-7-7-7-7-7-7-7-7-7-7-7-5-5-5-5-5-5-5-5-5-5-5-------
Ab|-5-5-5-5-5-5-5-5-5-5-5-3-3-3-3-3-3-3-3-3-3-3-------
Eb|---------------------------------------------------
   I see it in your eyes, take one look and die

Parte 6:
Gb|---------------------------------------------------
Db|---------------------------------------------------
Ab|-7-7-7-7-7-7-7-7-7-7-5-7-7-7-7-7-7-7-7-7-7-7-------
Eb|---------------------------------------------------

Parte 7:
    Db5                   Cb5
Gb|---------------------------------------------------
Db|-7-7-7-7-7-7-7-7-7-7-7-5-5-5-5-5-5-5-5-5-5-5-------
Ab|-5-5-5-5-5-5-5-5-5-5-5-3-3-3-3-3-3-3-3-3-3-3-------
Eb|---------------------------------------------------
   The only thing you see, you know it's gonna be

Refrão:
Gb|---------------------------------------------------
Db|---------------------------------------------------
Ab|-7-7-7-7-7-7-7-7-7-7-5-7-7-7-7-7-7-7-7-7-7-5-------
Eb|---------------------------------------------------

The ace of spades
The ace of spades

Final:

Parte 1:
Gb|---------------------------------------------------
Db|--------------------------------------------------- (2x)
Ab|-5h7-7-7-7-7-7-7-7-7-7-7-5h7-7-7-7-7-7-7-7-7-7-7--- 
Eb|---------------------------------------------------

Parte 2:
    Db5   Cb5   Db5   Cb5
Gb|---------------------------------------------------
Db|-7-7---5-5---7-7---5-5-----------------------------
Ab|-5-5---3-3---5-5---3-3-----------------------------
Eb|---------------------------------------------------

Parte 3: 
    Eb5  Db5  Eb5    Db5  Eb5  
Gb|---------------------------------------------------
Db|-9---7---9\---9---7---9\---------------------------
Ab|-7---5---7\---7---5---7\---------------------------
Eb|---------------------------------------------------
  • 1
  • 2
  • 3
  • 4
  • 5
  • 6
  • 7
  • 8
  • 9
  • 10
  • 11
  • 12
    Composição: Lemmy KilmisterColaboração e revisão:
    • Filipe
    • Caroline

    0 comentários

      mostrar mais comentários

      Conseguiu tocar?

      16tocaram0ainda não

      Grave um vídeo tocando Ace of Spades e mande pra gente!

      00:00 / 00:00
      outros vídeos desta música
      repetirqualidadeautomática
      • automática
      Outro vídeos desta música
        Capítulos
        • Início
        • Tocando a música
        • Afinação
        • Dicas para palhetar
        • Configuração do Efeito
        • Tocando Introdução
        • Ensinando Introdução
        • Acordes da Primeira Parte
        • Tocando Primeira Parte
        • Ensinando Primeira Parte
        • Tocando Refrão
        • Ensinando Refrão
        • Tocando Interlúdio
        • Ensinando Interlúdio
        • Acordes da Segunda Parte
        • Tocando Segunda Parte
        • Ensinando Segunda Parte
        • Acordes da Base do Solo de Guitarra
        • Tocando Base do Solo de Guitarra
        • Ensinando Base do Solo de Guitarra
        • Tocando Final
        • Ensinando Final
        • Encerramento
        00:00 / 00:00
        automática
        • automática
        Acordes para:violão e guitarra
        dificuldadeexibiçõescontribuições
        1 versão de Tab de baixoexibiçõescontribuições
        1 versão de Tab de bateriaexibiçõescontribuições
        fecharplay/pause subir/descer velocidade
        fechar
        OK
        Feedback