Cifra Club

Knights Of Cydonia

Muse

Cifra: Original-completa (violão e guitarra)
tom: E
E|-----------------------------------------------
B|-----------------------------------------------
G|-----------------------------------------------
D|-(2)(4)(5)--(7)(7)(9)----(2)(4)(5)--(7)(7)(9)--
A|-(2)(4)(5)--(7)(7)(9)----(2)(4)(5)--(7)(7)(9)--
E|--0--2--3~---5--5--7~-----0--2--3~---5--5--7~~-

(tocar varias vezes cada nota)
E|--------------------------------------------
B|--------------------------------------------
G|--------------------------------------------  (2x)
D|--------------------------------------------
A|-7---5-7-9---7-9-10---9-10-12-10-9-10-9-7-6-
E|--------------------------------------------

E|------------------------------
B|------------------------------
G|------------------------------
D|------------------------------
A|-19\\\\\\\\\\\\\\\\\\\\\\\\\0-
E|------------------------------

(usar a alavanca em todas as notas)
E|-----------------------------------------------------------------------------------------------
B|-----------------------------------------------------------------------------------------------
G|---------------------------------------------------8-5-0-7~---8-7-5-3~---7-5-3-5-3-1-3--4--5---
D|-5--4-2-0--2-4-5--4-2-0-----1-2-4-2--4-7-8--7-8-9~---------------------------------------------
A|-----------------------------------------------------------------------------------------------
E|-----------------------------------------------------------------------------------------------

(tocar varias vezes cada nota)
E|-11-10-8-6--8-10-11--10-8-6---7--8-10-8--10-11-13--11-13-14--19-17----18---19--18-17-15--
B|-------------------------------------------------------------------17--------------------
G|-----------------------------------------------------------------------------------------
D|-----------------------------------------------------------------------------------------
A|-----------------------------------------------------------------------------------------
E|-----------------------------------------------------------------------------------------

E|-17--15-13-15--13-11-13---14---15-----
B|--------------------------------------
G|--------------------------------------
D|--------------------------------------
A|--------------------------------------
E|--------------------------------------

(usar Delay e Reverb)
E|-----------------------------
B|-----------------------------
G|-4--4-4-4-6-6-6-6-6-6-4-4-3--
D|-----------------------------
A|-----------------------------
E|-----------------------------

E|--4--|-----|-----|-----|-----|-----|--3--|-----
B|--4--|--4--|--9--|--4--|--8--|--9--|--3--|--4--
G|--4--|--4--|--9--|--4--|--8--|--9--|--4--|--4--
D|--6--|--4--|--9--|--4--|--8--|--9--|--5--|--4--
A|--6--|--2--|--7--|--2--|--6--|--7--|--5--|--2--
E|--4--|-----|-----|-----|-----|-----|--3--|-----

"How can we win?"
E|-7--------|-7--------|-----8----|--7--|--7--|--8--|--7--|--7--|--7--
B|---8------|---7------|---8------|--8--|--7--|--8--|--8--|--7--|--8--
G|-----9----|-----8----|-9--------|--7--|--8--|--9--|--7--|--8--|--9--
D|----------|----------|----------|-----|-----|-----|-----|-----|-----
A|----------|----------|----------|-----|-----|-----|-----|-----|-----
E|----------|----------|----------|-----|-----|-----|-----|-----|-----

(repete a intro)

E|-19\\\\\\\\---
B|--------------
G|--------------
D|--------------
A|--------------
E|-----------0--

E|-----------------------------
B|-----------------------------
G|--9------9------9------9-9-9-
D|----9------9------9---------- (x4)
A|------10-----10-----10-------
E|-----------------------------

E|----------------------------
B|----------------------------
G|--7------7------7-----7-7-7-
D|----9------9------9--------- (x4)
A|------9------9------9-------
E|----------------------------

E|----------------------------
B|----------------------------
G|--6------6------6-----6-6-6-
D|----7------7------7--------- (x4)
A|------7------7------7-------
E|----------------------------

E|-----------------------------
B|-----------------------------
G|--9------9------9------9-9-9-
D|----9------9------9---------- (x4)
A|------10-----10-----10-------
E|-----------------------------

E|-----------------------------------------------------------------------------------------------------------
B|-----------------------------------------------------------------------------------------------------------
G|-----------------------------------------------------------------------------------------------------------
D|-----------------------------------------------------------------------------------------------------------
A|-5h7-7-7-5h7-7-7-5h7-7-7-7-5-7-5--5-------5-------5-------5-----5h7-7--7p0-0-0-7p0-0-0-7p0-0-0-7p0-0-------
E|------------------------------------7-7-7---7-7-7---7-7-7---7-7--------------------------------------7-5-3-

E|-----------------------------------
B|-----------------------------------
G|-----------------------------------  (7x)
D|-----------------------------------
A|-----------------------------------
E|-3p0-0-0-3p0-0-0-3p0-0-0-3p0-0-5h7-

(final)
E|---------------------------------------
B|---------------------------------------
G|---------------------------------------
D|---------------------------------------
A|---------------------------------------
E|-3p0-0-0-3p0-0-0-3p0-0-0-3p0-0-0-3-5-7-

E|-----------------------------------------
B|-----------------------------------------
G|-----------------------------------------
D|-----------------------------------------
A|----------------------------5h7-7-5h7-7--
E|-3p0-0-0--3p0-0-0--3p0-0-0---------------

E|-------------
B|-------------
G|-------------
D|-2-----------
A|-2-----------
E|-0-----------

00:00 / 00:00
Outros vídeos desta música
Repetir
Outros vídeos desta música
Composição de Matthew Bellamy
Colaboração e revisão:
  • vinicius
  • Júlio Nunes
  • Luccas Mattos
15.252 exibições
    • ½ Tom
    • A
    • Bb
    • B
    • C
    • Db
    • D
    • Eb
    • E
    • F
    • F#
    • G
    • Ab
  • Adicionar à lista

    0 comentários

    Ver todos os comentários

    Conseguiu tocar?

    20 Tocaram 2 Ainda não

    Grave um vídeo tocando Knights Of Cydonia e nos envie!

    00:00 / 00:00

    Cifra Club Pro

    Aproveite o Cifra Club com benefícios exclusivos e sem anúncios
    Cifra Club Pro
    Aproveite o Cifra Club com benefícios exclusivos e sem anúncios
    OK