Cifra Club

Já Era

Musical San Francisco

Cifra: Principal
exibições 9.007
Tom: D
Introdução:
e|xxxxxxxxxxxxxxxxxxxxxxxxxxxxxxxxxxxxxxxxxxxxxxxxxxxxxxxxxxxxx|
B|xxxxxxxxxxxxxxxxxxxxxxxxxxxxxxxxxxxxxxxxxxxxxxxxxxxxxxxxxxxxx|
G|xxxxxxxxxxxxxxxxxxxxxxxxxxxxxxxxxxxxxxxxxxxxxxxxxxxxxxxxxxxxx|
D|6-7-7-7---6-7-7-7---6-7-7-7----------------------------------|
A|4-5-5-5---4-5-5-5---4-5-5-5-----5-5-3-3-2-2-1-0--------------|
E|------------------------------------------------3------------|

G  Bm  A  G  D  A
Solo inicial:
e|---------------------9p10p9---------------------9-10-9-9p10p9------9-10-9------------|
B|----------------------------12---------------12---------------12-12-------10---------|
G|---------------7---7-----------11---------11---------------------------------9-------|
D|-------7-5-7p9---9----------------12-9-12--------------------------------------11----|
A|-----5----------------------------------------------------------------------------12-|
E|-5-7---------------------------------------------------------------------------------|

e|-------9-7--------------7------------------------------------------------------------|
B|-----------8--------------10--7-10-8-7-8-10------------------------------------------|
G|-----9-------7--------7--------------------------------------------------------------|
D|--11-----------9----9----------------------------------------------------------------|
A|-----------------10------------------------------------------------------------------|
E|-------------------------------------------------------------------------------------|

D                                         A 
ANTES EU DIZIA PRA VOÇÊ QUE IRIA TE ESQUECER
                                 G
VOÇÊ NÃO ACREDITOU NO QUE ACONTECEU
                              A
POIS NO MEU AMOR VOÇÊ PISOU DEMAIS

D
VOÇÊ DIZ QUE NÃO ME QUER 
                      A
MAIS SEI QUE AINDA ME AMA 
                                     G
QUANDO ESTOU NA SALA, ME ARRASTA PRA CAMA. 
                                A
EU SEI QUE DE AMOR VOÇÊ VAI ME CHAMAR..

Refrão:
      G
JÁ ERA
                                Bm
O SEU AMOR PRA MIM FOI AMOR DE NOVELA 
                                    A
FOI CHUVA DE VERÃO QUE NÃO MOLHOU A TERRA
             G                D
EU FUI UM IDIOTA E VOÇÊ FOI MAIS

   G
PERDEU
                                        Bm
VOÇÊ TINHA UM ALGUEM QUE PRA SEMPRE TI AMAVA 
                              A
TE DEI O MEU AMOR E VOÇÊ ME NEGAVA
               G                 D 
VOCÊ NÃO DEU VALOR AGORA EU TE ODEIO.

solo:
e|---------------------9p10p9---------------------9-10-9-9p10p9------9-10-9------------|
B|----------------------------12---------------12---------------12-12-------10---------|
G|---------------7---7-----------11---------11---------------------------------9-------|
D|-------7-5-7p9---9----------------12-9-12--------------------------------------11----|
A|-----5----------------------------------------------------------------------------12-|
E|-5-7---------------------------------------------------------------------------------|

e|-------9-7--------------7------------------------------------------------------------|
B|-----------8--------------10--7-10-8-7-8-10------------------------------------------|
G|-----9-------7--------7--------------------------------------------------------------|
D|--11-----------9----9----------------------------------------------------------------|
A|-----------------10------------------------------------------------------------------|
E|-------------------------------------------------------------------------------------|

D                                         A 
ANTES EU DIZIA PRA VOÇÊ QUE IRIA TE ESQUECER
                                 G
VOÇÊ NÃO ACREDITOU NO QUE ACONTECEU
                              A
POIS NO MEU AMOR VOÇÊ PISOU DEMAIS

D
VOÇÊ DIZ QUE NÃO ME QUER 
                      A
MAIS SEI QUE AINDA ME AMA 
                                     G
QUANDO ESTOU NA SALA, ME ARRASTA PRA CAMA. 
                                A
EU SEI QUE DE AMOR VOÇÊ VAI ME CHAMAR..

Refrão:
   G
JÁ ERA
                                Bm
O SEU AMOR PRA MIM FOI AMOR DE NOVELA 
                                    A
FOI CHUVA DE VERÃO QUE NÃO MOLHOU A TERRA
             G                D
EU FUI UM IDIOTA E VOÇÊ FOI MAIS

   G
PERDEU
                                        Bm
VOÇÊ TINHA UM ALGUEM QUE PRA SEMPRE TI AMAVA 
                              A
TE DEI O MEU AMOR E VOÇÊ ME NEGAVA
               G                 D 
VOCÊ NÃO DEU VALOR AGORA EU TE ODEIO.

 G
JÁ ERA
                                Bm
O SEU AMOR PRA MIM FOI AMOR DE NOVELA 
                                    A
FOI CHUVA DE VERÃO QUE NÃO MOLHOU A TERRA
             G                D
EU FUI UM IDIOTA E VOÇÊ FOI MAIS

   G
PERDEU
                                        Bm
VOÇÊ TINHA UM ALGUEM QUE PRA SEMPRE TI AMAVA 
                              A
TE DEI O MEU AMOR E VOÇÊ ME NEGAVA
               G                 D 
VOCÊ NÃO DEU VALOR AGORA EU TE ODEIO.
Acordes para:
    Composição: Emerson PaglariColaboração e revisão:
    • Emerson Pagliari
    • Marcelo Reinehr

    0 comentários

      mostrar mais comentários

      Conseguiu tocar?

      0tocaram0ainda não

      Grave um vídeo tocando Já Era e mande pra gente!

      00:00 / 00:00
      outros vídeos desta música
      repetirqualidadeautomática
      Outro vídeos desta música
        00:00 / 00:00
        automática
        OK