Cifra Club

Aprenda

Kings Of Hollywood

Mxpx

Tab de baixo: Principal
Tabbed By: kstar19
E-mail: *

Tuning: normal


Part 1
G|-------------------------|
D|-------------------------|
A|--01----01----01-03-010-0|
E|1----01----01----------3-|

Part 2
G|--------------------------|
D|--------------------------|
A|--01----010-0--01-03-010-0|
E|1----01----3-1----------3-|

Part 3
G|----------------------------------|
D|----------------------------------|
A|--01----01----01----01-03-01-03-01|
E|1----01----01----01---------------|

Part 4
G|------------------|
D|------------------|
A|-----01-103-3010-0|
E|01-1------------3-|

Part 5
G|-------------------------------------------------------------------------|
D|-------------------------------------------------------------------------|
A|---01-10----01-10----01-10----01-10-33-0-11-0-33-0-11-0----01-10-33-010-0|
E|11-------11-------11-------11---------------------------11-------------3-|

Refrain 1
G|-----------------------------------------|
D|-----------------------------------------|
A|-----------11111111111------------11111-3|
E|11111111111------------11111111111-------|

Part 2
G|--------------------------|
D|--------------------------|
A|--01----010-0--01-03-010-0|
E|1----01----3-1----------3-|

Part 5
G|-------------------------------------------------------------------------|
D|-------------------------------------------------------------------------|
A|---01-10----01-10----01-10----01-10-33-0-11-0-33-0-11-0----01-10-33-010-0|
E|11-------11-------11-------11---------------------------11-------------3-|

Part 5
G|-------------------------------------------------------------------------|
D|-------------------------------------------------------------------------|
A|---01-10----01-10----01-10----01-10-33-0-11-0-33-0-11-0----01-10-33-010-0|
E|11-------11-------11-------11---------------------------11-------------3-|

Refrain 2
G|-------------------------------------------------------------|
D|-------------------------------------------------------------|
A|-----------11111111111------------11111-33333-55555555—5555-3|
E|11111111111------------11111111111---------------------------|

Bridge
G|-------------------------------------------------------------|
D|-------------------------------------------------------------|
A|11111-33333-5555555555---11111-33333-5555555555--—11111-33333|
E|-------------------------------------------------------------|


No base from 2:08-2:14


Part 2
G|--------------------------|
D|--------------------------|
A|--01----010-0--01-03-010-0|
E|1----01----3-1----------3-|

Part 3
G|----------------------------------|
D|----------------------------------|
A|--01----01----01----01-03-01-03-01|
E|1----01----01----01---------------|

Part 4
G|------------------|
D|------------------|
A|-----01-103-3010-0|
E|01-1------------3-|

Refrain 3
G|----------------------------------------------|
D|----------------------------------------------|
A|------------11111111111------------11111-33333|
E|11111111111-------------11111111111-----------|

G|----------------------------------------------|
D|----------------------------------------------|
A|------------11111111111------------11111-33333|
E|11111111111-------------11111111111-----------|



No base from 3:04-end


This is a fun one to play and pretty easy too.
If I screwed up, say something, I’d appreciate it.
Once you play it you’ll get all the timings and little details.
Have fun!  ~kstar19
=================================================================
Composição de Gérard Rinaldi
293 exibições

0 comentários

Ver todos os comentários

Conseguiu tocar?

0 Tocaram 0 Ainda não

Grave um vídeo tocando Kings Of Hollywood e nos envie!

00:00 / 00:00
outros vídeos desta música
repetir qualidade Automático
Outros vídeos desta música
00:00 / 00:00
Automático

Cifra Club Pro

Aproveite o Cifra Club com benefícios exclusivos e sem anúncios
Cifra Club Pro
Aproveite o Cifra Club com benefícios exclusivos e sem anúncios
OK