Cifra Club

My Way Home Is Through You

My Chemical Romance

Tab de baixo: Principal
Standard Tuning EADG

Intro (Guitar)

Verse 0.07
|--------------------------------------|
|--------------------------------------| X4
|-22222222----------55555555-----------|
|----------22222222----------3333-2222-|

Chorus
|--------------------------------------------------------------------|
|--------------------------------------------------------------------| X2
|-2-2----------------------------22222222----------------------------|
|------2-2-222-33333333-55555555----------22222222-33333333-55555555-|

Post Chorus
|--------------------------------------|
|--------------------------------------| X2
|-22222222----------55555555-----------|
|----------22222222----------3333-2222-|

Verse
|--------------------------------------|
|--------------------------------------| X4
|-22222222----------55555555-----------|
|----------22222222----------3333-2222-|

Chorus
|--------------------------------------------------------------------|
|--------------------------------------------------------------------| X2
|-2-2----------------------------22222222----------------------------|
|------2-2-222-33333333-55555555----------22222222-33333333-55555555-|


Bridge (Bass comes in at 1.32)
|-----------------|
|-----------------| 
|-----------------|
|-333-333-300-000-|

|--------------------------------|
|--------------------------------| X3
|-22-222-222-222-2---------------|
|-----------------33-333-300-000-|

|------------------------------------|
|------------------------------------| X2
|-2222222222222222-------------------|
|------------------33333333-00000000-|

Solo
|-----------------------------------------------------------|
|-----------------------------------------------------------|
|-------555555----------------------555555------------------|
|-33333--------555555-777-555-33333--------5555555555555555-|

Chorus
|--------------------------------------------------------------------|
|--------------------------------------------------------------------| X2
|-2-2----------------------------22222222----------------------------|
|------2-2-222-33333333-55555555----------22222222-33333333-55555555-|

Outro
|-------------------------------------|
|-------------------------------------| X4
|-22222222----------------------------|
|----------22222222-33333333-55555555-|

End
|----------------------|
|----------------------| X4
|--------5~------------|
|-3~------------5~-----|

That’s what I think it goes like.
Please rate it and email me if you have any problems, *

Adam Vaughan

\ = Slide Down
~ = Let ring
exibições 1.813
Composição: Gerard Way

0 comentários

mostrar mais comentários

Conseguiu tocar?

0 tocaram 0 ainda não

Grave um vídeo tocando My Way Home Is Through You e mande pra gente!

00:00 / 00:00
outros vídeos desta música
repetir qualidade Automático
Outros vídeos desta música
00:00 / 00:00
Automático
OK