Cifra Club

Ghost of you

My Chemical Romance

Cifra: Principal (violão e guitarra)
Tom: F#
Intro/Verse
E|---------------------------------------------------------------------------|
B|--3--------3--------3-------------2---------------2-----2-----------2------|
G|--2--------2--------2-------------2---------------2-----2-----------2------|
D|---------------------------------------------------------------------------|
A|----2-2-2-----2-2------2-2-2-2-2-----2-2----2-2-2---2-2---2-2-2-2-2----2-2-|
E|---------------------------------------------------------------------------|


E|---------------------------------------------------------------------------|
B|--3--------3--------3-------------2---------------2-----2-----------2------|
G|--2--------2--------2-------------2---------------2-----2-----------2------|
D|---------------------------------------------------------------------------|
A|---------------------------------------------------------------------------|
E|----0-0-0-----0-0------0-0-0-0-0-----0-0----0-0-0---0-0---0-0-0-0-0----0-0-|
              Guitar 2
E|-----------------------------------------------------------|
B|----------------------------------------------12--7--10~---|
G|---7---11-7------------7---7---7-----7---11-7--------------|
D|-9---9------x2-------9---9---9-----9---9-------------------|
A|-----------------------------------------------------------|
E|-----------------------------------------------------------|


E|-------------------------------------------------------------------------------------------------|
B|-------------------------------------------------------------------------------------------------|
G|-9h11-7h9-6h7-6---9h11-7h9-6h7-77s9~-11-------12-----14----------------11------------------------|
D|----------------9-----------------------12p11---12p11---12p11-12-12s14---12p11-12p11-14-14s12-11-|
A|-------------------------------------------------------------------------------------------------|
E|-------------------------------------------------------------------------------------------------|

E|----------------------------------------------------------------------------|
B|----------------------------------------------------------------------------|
G|--11---12--11~--9-11--11---12---11~----9-11s12-11------14-12p11-12p11-------|
D|9----9---9-----9----9----9----9-----9-------------12~-----------------12-12-|
A|----------------------------------------------------------------------------|
E|---------------------------------------------------------------------------|
          Refrão Guitar1
E|-------------------------------------------------|
B|-------------------------------------------------|
G|----6-7--------------7---6-7----6-7--------------|
D|----5-5--2--11-12--x-7---5-5--9s5-5-2------------|
A|----5-5--2--9--9---x-5---5-5--9s5-5-2------------|
E|----3-3--0--7--7---x-----3-3--7s3-3-0------------|
   REFRÃO guitar 2
E|-------------------------------------------------------------------------------------------------|
B|-------------------------------------------------------------------------------------------------|
G|-12-12--14-14-16-16-12-12-14-12-11-11--|--11-12-11-9-11--11-12-11-9--11-11-12-11-9-11-11-12-11-9-|
D|--x--x--x---x--x--x--x--x-x--x--x--x---|--x--x--x--x-x---x---x-x--x--x--x---x-x--x-x--x--x--x--x-|
A|-10-10--12-12-14-14-10-10-12-10-9--9---|--9--10-9--7-9---9--10-9--7--9--9--10-9--7-9--9--10-9--7-|
E|---------------------------------------|---------------------------------------------------------|

E|--------------------|
B|--------------------|
G|-6-6-7-7-9-9-11-11--| essas são as notas em oitavadas q o guitar 2 faz
D|-x-x-x-x-x-x-x--x---| o tempo e so acompanhar com a musica.
A|-4-4-5-5-7-7-9--9---|
E|--------------------|
  Breakdown
E|----------------------------------|
B|----------------------------------|
G|------0-------------0---------0---|x2
D|-4-----------4-----------4--------|
A|----2-----2------------------4--4-|
E|----------------3-----3-----------|

Interlude
 guitar 1
B|-G-C#-F#

  Guitar 2
E|----------2---------s3------------2----------------------|
B|----3---3---3--3--3----3---3----3---3--------------------|
G|--4---4-------4--4-------4----4--------s9-7-6-7-6--------|
D|--------------------------------------------------7------|
A|---------------------------------------------------------|
E|---------------------------------------------------------|

E|---------2------s3-------2------------------------------|------------------|
B|---3---3--3-3--3--3-3--3--3-----------------------------|------------------|
G|-4---4-----4--4----4--4---------------------------------|------------------|
D|--------------------------------------------------------|-------P.M--------|
A|------------------------------2-4-5s7-4-------2-4-5s7-4-|------------------|
E|-----------------------------------------7-5------------|--7-7-7-7-5-5-5-5-|


| s  slide
| h  hammer-on
| p  pull-off
| ~  vibrato
| x  Mute note


Order
-Intro x1
-Intro  2nd gui x3
-Refrão x1
-Intro  2nd gui x2
-Chorus x2
-Breakdown
-Interlude
-Refrão x2
exibições 74.246
Acordes para:
    Composição: My Chemical Romance Colaboração e revisão:

    0 comentários

    mostrar mais comentários

    Conseguiu tocar?

    2 tocaram 0 ainda não

    Grave um vídeo tocando Ghost of you e mande pra gente!

    00:00 / 00:00
    outros vídeos desta música
    repetir qualidade Automático
    Outros vídeos desta música
    00:00 / 00:00
    Automático
    OK