Cifra Club

I Don't Love You

My Chemical Romance

Cifra: Principal (violão e guitarra)
Tom: C
[Intro] C  Am  G  F  G

   C
E|-12----12----12----12---------------------|
B|-13----13----13----13---------------------|
G|----12----12----12----12------------------| (2x)
D|------------------------------------------|
A|------------------------------------------|
E|------------------------------------------|

E|-12----12----12----12---------------------|
B|-13----13----13----13---------------------|
G|----12----12----12----12------------------|
D|------------------------------------------|
A|------------------------------------------|
E|------------------------------------------|

E|-13----13----15----15---------------------|
B|-13----13----13----13---------------------|
G|----12----12----12----12------------------|
D|------------------------------------------|
A|------------------------------------------|
E|------------------------------------------|
  
   Am
E|-15----15----15----15---------------------|
B|-13----13----13----13---------------------|
G|----14----14----14----14------------------|
D|------------------------------------------|
A|------------------------------------------|
E|------------------------------------------|

E|-13----13----12----12---------------------|
B|-13----13----13----13---------------------|
G|----14----14----14----14------------------|
D|------------------------------------------|
A|------------------------------------------|
E|------------------------------------------|

   G
E|-10----10----10----10---------------------|
B|-13----13----13----13---------------------|
G|----12----12----12----12------------------|
D|------------------------------------------|
A|------------------------------------------|
E|------------------------------------------|
  
E|-10----10----10----10---------------------|
B|-12----12----13----13---------------------|
G|----12----12----12----12------------------|
D|------------------------------------------|
A|------------------------------------------|
E|------------------------------------------|
 
   F
E|-12----12----12----12---------------------|
B|-13----13----13----13---------------------|
G|----12----12----12----12------------------|
D|------------------------------------------|
A|------------------------------------------|
E|------------------------------------------|

   G
E|-10----10----8-----7----------------------|
B|-13----13----13----13---------------------|
G|----12----12----12----12------------------|
D|------------------------------------------|
A|------------------------------------------|
E|------------------------------------------|

Verso:
               C
Well when you go
                               Am
So never think i'll make you try to stay
                        G
And maybe when you get back
                             C
I'll be off to find another way

And after all this time that you still owe
                           Am
You're still the good for nothing i don't know
                            G
So take your gloves and get out, better get out
           C
While you can

[Refrão]

  F       G
When you go
 G#°      Am    G       Dm
Would you even turn to say
              F
I don't love you
        G
Like I did
       C
Yesterday

[Segunda Parte]

             C
Sometimes I cry so hard from pleading
                     Am
So sick and tired of all the needless beating
                     G
But baby when they knock you down and out
                        C
It's where you oughta stay
                    
And after all the blood that you still owe
                  Am
Another dollar's just another blow
                      G
So fix your eyes and get up, better get up
           C
While you can

[Refrão]

  F       G
When you go
 G#°      Am    G       Dm
Would you even turn to say
              F
I don't love you
        G
Like I did
       C
Yesterday

[Solo] Dm  G  C  
       Bm7(b5)  Am
       Dm  G  C

E|------------------------------------------|
B|-10--10--10--10--10---13--13---12--12-----|
G|-12b-12b-12b-12b-12b--15b-15b--14b-14b----|
D|------------------------------------------|
A|------------------------------------------|
E|------------------------------------------|

E|------------------------------------------|
B|-12--12--12--12--12--12-------------------|
G|-14b-14b-14b-14b-14b-14b------------------|
D|------------------------------------------|
A|------------------------------------------|
E|------------------------------------------|

E|------------------------------------------|
B|----8---8---9---9---12--10--10--10--------|
G|-12-10b-10b-11b-11b-14b-12b-12b-12b-------|
D|------------------------------------------|
A|------------------------------------------|
E|------------------------------------------|

E|------------------------------------------|
B|-12b13p10-12/13h15b17r--15p13h15-13-------|
G|------------------------------------------|
D|------------------------------------------|
A|------------------------------------------|
E|------------------------------------------|

E|-13-13-12-12-12-12-12-12-12---------------|
B|-15-15-13-13-12-13-12-12-12-10~-8-8-8-8-8~|
G|------------------------------------------|
D|------------------------------------------|
A|------------------------------------------|
E|------------------------------------------|

[Refrão]

  F       G
When you go
 G#°       Am       G       Dm
Would you have the guts to say
              F
I don't love you
              G
Like I loved you
       C    Bm7(b5)  Am  G
Yesterday, hey,     hey, ohh

              F
I don't love you
              G
Like I loved you
       C    Bm7(b5)  Am  G
Yesterday, hey,     hey, ohh

         F         
I don't love you
        G
Like I loved you
       C
Yesterday
exibições 238.840
Acordes para:
    Composição: My Chemical Romance Colaboração e revisão:

    0 comentários

    mostrar mais comentários

    Conseguiu tocar?

    41 tocaram 1 ainda não

    Grave um vídeo tocando I Don't Love You e mande pra gente!

    00:00 / 00:00
    outros vídeos desta música
    repetir qualidade Automático
    Outros vídeos desta música
    00:00 / 00:00
    Automático
    OK