Cifra Club

Aprenda

Você Me Encantou Demais

Natiruts

Cifra: Principal (violão e guitarra)
tom: F#m
[Intro] F#m  C#m7  D7M
        F#m  C#m7  D7M
        F#m  C#m7  D7M
        F#m  C#m7  D7M

E|-4h5-4-0-2---0-2-0-------------------------------|
B|-------------------0-2----0-2-0------------------|
G|---------------------------------2-1--2----------|
D|-------------------------------------------------|
A|-------------------------------------------------|
E|-------------------------------------------------|


E|-4h5-4-0-2---0-2-0-------------------------------|
B|-------------------0-2----0-2-0------------------|
G|---------------------------------2-1--2----------|
D|-------------------------------------------------|
A|-------------------------------------------------|
E|-------------------------------------------------|


F#m         C#m7        D7M
    Você me encantou demais
F#m              C#m7         D7M
    Mostrou seu coração, do que ele é capaz
F#m               C#m7      D7M
    Por isso eu quero te dizer
F#m                C#m7          D7M
    Que a flor dessa canção sempre será você
F#m            C#m7         D7M
    Seu beijo despertou paixão
F#m                C#m7            D7M
    Desculpe se me apressei, pois nada foi em vão
F#m             C#m7     D7M
    O que eu desejo à você
F#m                  C#m7           D7M
    É que os deuses do amor estejam a te proteger

                                     C#m7
E que o verão no seu sorriso nunca acabe
          D7M                     C#m7
E aquele medo de viver um dia se torne um grande amor
          D7M                      C#m7
Vou te falar mas acho que você já sabe
  Bm7        C#m7        D7M       E4(7/9)
Apaixonou, alucinou, descompassou
         F#m  C#m7  D7M
Meu coração
         F#m  C#m7  D7M
Meu coração

F#m          C#m7         D7M
    Você me fez sonhar demais
F#m             C#m7             D7M
    Chegou, sorriu, beijou, mostrou como se faz
F#m               C#m7      D7M
    Por isso eu quero te falar
F#m               C#m7         D7M
    Que os As dessa canção eu fiz só pra te dar
F#m            C#m7        D7M
    Seu jeito lindo fez arder
F#m            C#m7         D7M
    Fiquei feito vulcão, fervendo por te ver
F#m             C#m7     D7M
    E que eu desejo à você
F#m                  C#m7           D7M
    É que os deuses do amor estejam a te proteger

                                     C#m7
E que o verão no seu sorriso nunca acabe
          D7M                     C#m7
E aquele medo de viver um dia se torne um grande amor
          D7M                      C#m7
Vou te falar mas acho que você já sabe
  Bm7        C#m7        D7M       E4(7/9)
Apaixonou, alucinou, descompassou
         F#m  C#m7  D7M
Meu coração
         F#m  C#m7  D7M
Meu coração
         F#m  C#m7  D7M
Meu coração
         F#m  C#m7  D7M
Meu coração

[Final] F#m  C#m7  D7M
        F#m  C#m7  D7M
        F#m  C#m7  D7M
        F#m  C#m7  D7M

E|-4h5-4-0-2---0-2-0-------------------------------|
B|-------------------0-2----0-2-0------------------|
G|---------------------------------2-1--2----------|
D|------------------------------------------2/4----|
A|-------------------------------------------------|
E|-------------------------------------------------|


E|-4h5-4-0-2---0-2-0-------------------------------|
B|-------------------0-2----0-2-0------------------|
G|---------------------------------2-1--2----------|
D|------------------------------------------2/4----|
A|-------------------------------------------------|
Composição de Alexandre Carlo / Natiruts
587.020 exibições
    • ½ Tom
    • Am
    • Bbm
    • Bm
    • Cm
    • C#m
    • Dm
    • Ebm
    • Em
    • Fm
    • F#m
    • Gm
    • G#m
  • Adicionar à lista

    0 comentários

    Ver todos os comentários

    Conseguiu tocar?

    84 Tocaram 10 Ainda não

    Grave um vídeo tocando Você Me Encantou Demais e nos envie!

    00:00 / 00:00
    outros vídeos desta música
    repetir qualidade Automático
    Outros vídeos desta música
    00:00 / 00:00
    Automático

    Cifra Club Pro

    Aproveite o Cifra Club com benefícios exclusivos e sem anúncios
    Cifra Club Pro
    Aproveite o Cifra Club com benefícios exclusivos e sem anúncios
    OK