Cifra Club

Sorri, Sou Rei

Natiruts

Cifra: Principal (violão e guitarra)
exibições 1.171.897
Tom: Dm
[Intro] Dm7  G  Am 
        Dm7  G  Am 
        Dm7  G  Am 
        Dm7  G  Am 

Parte 1 de 3

   Am7
E|------------------------------------------|
B|-----5------6/8\6--5h6p5------------------|
G|---5---5----7/9\7--5h7p5------------------|
D|-7-------7--------------------------------|
A|------------------------------------------|
E|------------------------------------------|

Parte 2 de 3

   G
E|------------------------------------------|
B|-----3------6/8\6--5h6p5------------------|
G|---4---4----7/9\7--5h7p5------------------|
D|-5-------5--------------------------------|
A|------------------------------------------|
E|------------------------------------------|

Parte 3 de 3

   Am7
E|------------------------------------------|
B|-----5---------------------5--------------|
G|---5---5----4-5----------5---5---4-5------|
D|-7-------7------7-x-x--7-------7-----7-x-x|
A|------------------------------------------|
E|------------------------------------------|

[Primeira Parte]

Dm7
    Quando a esperança 
              G
De uma noite de amor
         Am7
Lhe trouxer vontade 

Para viver mais
Dm7
    E a promessa que 
          G
A chance terminou
     Am7
É bobagem 

É melhor deixar pra trás

[Segunda Parte]

          Dm7
Eu tô cansado de sofrer
          G
Quero dançar, sentir calor
     Am7
E poder só olhar 
 
O universo em torno de você
              Dm7
Brilhando em vida
            G
Sorrindo à toa
              Am7
Só vibrando amor e paz
         Dm7               G
Sinto a noite, penso em você
               Am7
Lembro como é bom amar

[Refrão]

Quando você se foi
    Dm7     G       Am7
Chorei, chorei, chorei

Agora que voltou
    Dm7    G       Am7
Sorri, sorri, sou rei

Quando você se foi
    Dm7     G       Am7
Chorei, chorei, chorei

Agora que voltou
    F      G       Am7
Sorri, sorri, sou rei

[Passagem]

Parte 1 de 4

E|------------------------------------------|
B|------------------------------------------|
G|------------------------------------------|
D|------------------------------------------|
A|------------------------------------------|
E|-5-x-5-5-x-x--5-x-5-5-x-x--5-x-5-5--------|

Parte 2 de 4

                   Am7(11)
E|-----------------0------------------------|
B|-----------------3------------------------|
G|-----------------5------------------------|
D|-----------------5------------------------|
A|-----3-5/7-3--0---------------------------|
E|-3-5--------------------------------------|

Parte 3 de 4

           Am7(11)           Am7(11)
E|---------0-----------------0--------------|
B|---------3-----------------3--------------|
G|---------5-----------------5--------------|
D|---------5-----------------5--------------|
A|------0-----------------0-----------------|
E|-0-3------------0-3-0-3-------------------|

Parte 4 de 4

E|------------------------------------------|
B|------------------------------------------|
G|------------------------------------------|
D|------------------------------------------|
A|-----3-5/7-3------------------------------|
E|-3-5--------------------------------------|

[Terceira Parte]

[Riff Final]

Parte 1 de 4

E|------------------------------------------|
B|------------------------------------------|
G|------7-------7-------6-------6-----------|
D|----7-------7-------5-------5-------------|
A|------------------------------------------|
E|-6-------6-------5-------5----------------|

Parte 2 de 4

E|------------------------------------------|
B|------------------------------------------|
G|-----5-------5-------5-------5------------|
D|---3-------3-------3-------3--------------|
A|-5------5-------5-------5-----------------|
E|------------------------------------------|

Parte 3 de 4

E|------------------------------------------|
B|------6-------6-------5--------5----------|
G|----7-------7-------6-------6-------------|
D|----7-------7-------5-------5-------------|
A|------------------------------------------|
E|-6-------6-------5-------5----------------|

Parte 4 de 4

E|------------------------------------------|
B|------5-------5--------5-------5----------|
G|----5-------5--------5-------5------------|
D|----3-------3--------3-------3------------|
A|-5-------5--------5-------5---------------|
E|------------------------------------------|

Bb7M
     Saiba que o simples 
                 A7
Perfume de uma flor
      Dm7(9)
Pode vir a ser 

Um grande amor na sua vida
Bb7M
     Não gaste palavras 
  A7
Pra viver
       Dm7(9)
De iludir os seus sonhos

Tão raros com mentiras
Bb7M                     A7
     Não maltrate o coração
             Dm7(9)
De quem dedicou 

O seu sorriso as suas batidas
Bb7M                      A7
     E será livre pra sentir
                     Dm7(9)
Os sonhos de uma paixão
    A7
Nascer uma história linda

[Quarta Parte]

 Dm7
Diga que me adora
 Bb7                A7
Deixa o orgulho de lado
        Dm7
Porque já está na hora
    Bb7            A7
Da gente se encontrar
            Dm7
E sermos um

Mas não demora 
  Bb7
Que é pra chama 
    A7          Dm7
Não    desencantar
 Bb7   A7    Gm
Se esvair no ar 
   C                F
E só restar lembranças 

[Repete a Segunda Parte]

          Dm7
Eu tô cansado de sofrer
          G
Quero dançar, sentir calor
     Am7
E poder só olhar 
 
O universo em torno de você
              Dm7
Brilhando em vida
            G
Sorrindo à toa
              Am7
Só vibrando amor e paz
        Dm7
Vejo a lua
           G
Lembro do sonho
            Am7
Torço pra realizar
         Dm7               G
Sinto a noite, penso em você
               Am7
Lembro como é bom amar

[Refrão]

Quando você se foi
    Dm7     G       Am7
Chorei, chorei, chorei

Agora que voltou
    Dm7    G       Am7
Sorri, sorri, sou rei

Quando você se foi
    Dm7     G       Am7
Chorei, chorei, chorei

Agora que voltou
    F      G       Am7
Sorri, sorri, sou rei

( Dm7  G  Am7 )
( Dm7  G  Am7 )
( Dm7  G  Am7 )
( Dm7  G  Am7 )
( Dm7  G  Am7 )
Acordes para:

    0 comentários

    mostrar mais comentários

    Conseguiu tocar?

    86 tocaram 17 ainda não

    Grave um vídeo tocando Sorri, Sou Rei e mande pra gente!

    00:00 / 00:00
    outros vídeos desta música
    repetir qualidade Automático
    Outros vídeos desta música
    00:00 / 00:00
    Automático
    Capítulos
    • Tocando a música
    • Dicas Iniciais / Equipamentos
    • Acordes da música
    • Tocando Introdução e Primeira Parte
    • Ritmo da música
    • Introdução - Parte 1 de 3
    • Introdução - Parte 2 de 3
    • Introdução - Parte 3 de 3
    • Introdução - Parte 3 de 3 (Variação)
    • Acordes do Refrão
    • Tocando o Refrão
    • Acorde da Passagem
    • Tocando a Passagem
    • Passagem - Parte 1 de 4
    • Passagem - Parte 2 de 4
    • Passagem - Parte 3 de 4
    • Passagem - Parte 4 de 4
    • Acordes da Terceira Parte
    • Acordes da Quarta Parte
    • Tocando Terceira e Quarta Parte
    • Riff Final - Parte 1 de 4
    • Riff Final - Parte 2 de 4
    • Riff Final - Parte 3 de 4
    • Riff Final - Parte 4 de 4
    • Encerramento
    • Ficha Técnica e Erros de Gravação
    OK