Cifra Club

Glory Of Love

New Found Glory

Tab de baixo: Versão 2
Tabbed by: Byron Andrada
Email: *

This is how our band play this song,this is very simple!
I've watched Ian played it so its almost 100% correct...
oist jet! eto na! baseline drive rules!!! ch33rs!!!

It's a good song! enjoi....


Verse 1
G|-------12-----12-----12-----12------------------------------|
D|---1010---1010---1010---1010-------12-----12-----12-----12--|
A|-------------------------------1010---1010---1010---1010----|
E|------------------------------------------------------------|


G|-------12-----12----------------12-----12-------------------|
D|---1010---1010-----11---11--1010---1010-------12-----12-----|
A|-----------------88---88------------------1010---1010-------|
E|------------------------------------------------------------|

G|--------------------------------------------------|
D|---1010-10101010--77-7777--88-8888--55-5555-------|
A|--------------------------------------------------|
E|--------------------------------------------------|

G|--------------------------------------------------|
D|---66-6666--88-8888---66-6666--88-8888------------|
A|--------------------------------------------------|
E|--------------------------------------------------|


Chorus
G|-------------------------------------|
D|-------------------------------------|
A|--33-333--------33-333---------------|
E|---------11-111--------33-333--------|


G|-------------------------------------|
D|-------------------------------------|
A|--33-333-----------------------------|
E|---------11-111--55-555--33-333------|


G|-------------------------------------|
D|-------------------------------------|
A|----------55-555--33-333--22-222-----|
E|--55-555-----------------------------|

G|-------------------------------------|
D|-------------------------------------|
A|----------55-555----------33-333-----|
E|--55-555----------33-333-------------|

interlude :
G|-------------------------------------|
D|-------------------------------------|
A|--33-333-----------------------------|
E|----------11-111--33333333-----------|

repeat verse and chorus:

bridge :
G|------------------------------------------|
D|------------------------------------------|
A|---------------------666666---------------|
E|--1111111444444666666---------------------|


G|--------------------------------------------------------|
D|--------------------------------------------------------|
A|----------------3---6-----------------------------------|
E|--1111111444444---6---4-3-3333333333333----8\-----------|


(no instrument)


G|-----------------|
D|-----------------| then repeat chorus pattern till fade....
A|---33333---------|
E|-----------------|


If you have some suggestions or comments,feel free to PM or email me at *
                                                           /bon
Compositor não encontrado.
110 exibições

0 comentários

Ver todos os comentários

Conseguiu tocar?

0 Tocaram 0 Ainda não

Grave um vídeo tocando Glory Of Love e nos envie!

00:00 / 00:00
Outros vídeos desta música
Repetir Qualidade Automático
Outros vídeos desta música
00:00 / 00:00
Automático

Cifra Club Pro

Aproveite o Cifra Club com benefícios exclusivos e sem anúncios
Cifra Club Pro
Aproveite o Cifra Club com benefícios exclusivos e sem anúncios
OK