Cifra Club

Aprenda

Homem Amarelo

O Rappa

Cifra: Versão 3 (violão e guitarra)
tom: G
Versão Ao Vivo

Verso pt.1                      verso pt.2 
e|------------------------|---------|-----------------------------------|
B|------------------------|---------|-------------------------9/10-9/10-|
G|x-x-9-10--7--7-9--------|x-x-9-10-|--5---5---5---5---5---5--9/10-9/10-|
D|x-x--------------x-7-7--|x-x------|7---7---7---7---7---7--------------|
A|x-x-7/8---5--5/7-x-7-7--|x-x-7/8--|-----------------------------------|
E|-----------------x-5-5--|---------|-----------------------------------|

Refrão
e|-----|-------|
B|-----|-------|
G|---7-|---7-5-|  essa segunda parte no "só misturando pra ver"
D|7--7-|7--7-5-|
A|7--5-|7--5-3-|
E|5----|5------|

Final
e|------------------------------------|
B|------------------------------------|
G|7--7-9-7--7-9-10-9-9-10-12-10-9-10--|  cor da pele, f*da-se
D|------------------------------------|
A|------------------------------------|
E|------------------------------------|
Composição de O Rappa
Colaboração e revisão:
  • yuri elero
7.010 exibições
    • ½ Tom
    • A
    • Bb
    • B
    • C
    • Db
    • D
    • Eb
    • E
    • F
    • F#
    • G
    • Ab
  • Adicionar à lista

    0 comentários

    Ver todos os comentários

    Conseguiu tocar?

    1 Tocaram 0 Ainda não

    Grave um vídeo tocando Homem Amarelo e nos envie!

    00:00 / 00:00
    Outros vídeos desta música
    Repetir Qualidade Automático
    Outros vídeos desta música
    00:00 / 00:00
    Automático

    Cifra Club Pro

    Aproveite o Cifra Club com benefícios exclusivos e sem anúncios
    Cifra Club Pro
    Aproveite o Cifra Club com benefícios exclusivos e sem anúncios
    OK