Cifra Club

Aprenda

Vapor Barato

O Rappa

Tab de baixo: Versão 2
Intro (vocalização)

   Am                G		    F		       Dm     E
G|-----------------|--------------|------------------|---------------|
D|---------7-5-7---|-7----7-7-----|----------3-2-3---|---------------|
A|-------7---------|---7--------7-|-------3----------|-5-5--7-7--7-8-| (2x) 
E|-5-7-8---------5-|--------------|-1-3-5----------1-|---------------| 

Versos

   Am                G		    F		       Dm     E
G|-----------------|--------------|------------------|---------------|
D|---------7-5-7---|-7----7-7-----|----------3-2-3---|---------------|
A|-------7---------|---7--------7-|-------3----------|-5-5--7-7--7-8-| (2x) 
E|-5-7-8---------5-|--------------|-1-3-5----------1-|---------------| 
  
   Am                G		        F		   Dm     E
G|-----------------|------------------|------------------|---------------|
D|---------7-5-7---|---------7-5-7--7-|----------3-2-3---|---------------|
A|-------7---------|-------7----------|-------3----------|-5-5--7-7--7-8-|
E|-5-7-8---------5-|-5-7-8------------|-1-3-5----------1-|---------------| 

Refrão

   Am                  G		  F		     Dm     E
G|-------------------|------------------|------------------|---------------|
D|---------7-5-7-----|---------7-5-7--7-|----------3-2-3---|---------------|
A|-------7-----------|-------7----------|-------3----------|-5-5--7-7--7-8-|
E|-5-7-8---------5-5-|-5-7-8------------|-1-3-5----------1-|---------------| 

   Am                  G		    F		   Dm     E
G|-----------------|------------------|------------------|-------------------||
D|---------7-5-7---|---------7-5-7--7-|----------3-2-3---|--------7----------||
A|-------7---------|-------7----------|-------3----------|-5-7-8----7-7--7-8-||
E|-5-7-8---------5-|-5-7-8------------|-1-3-5----------1-|-------------------|| 
Composição de Waly Salomão
Colaboração e revisão:
  • Frank Neres
1.732 exibições

0 comentários

Ver todos os comentários

Conseguiu tocar?

0 Tocaram 0 Ainda não

Grave um vídeo tocando Vapor Barato e nos envie!

00:00 / 00:00
Outros vídeos desta música
Repetir Qualidade Automático
Outros vídeos desta música
00:00 / 00:00
Automático

Cifra Club Pro

Aproveite o Cifra Club com benefícios exclusivos e sem anúncios
Cifra Club Pro
Aproveite o Cifra Club com benefícios exclusivos e sem anúncios
OK