Cifra Club

Aprenda

Vapor Barato

O Rappa

Tab de baixo: Versão 4
Introdução e canto:

G|----------------------------------------------------------------------------
D|----------7---7-7------7---7-7-----------------3---3-3----------------------
A|--------7---7------------7-----7-----------0-3---3----------5---7-7-----5-7-
E|-5-7-8--------------------------------1-3--------------------5-------------


Refrão:

G|---------------------------------------------------------------------------
D|---------7---7-7------------7---7-7-----------3---3-3----------------------
A|-------7---7--------------7---7-----------0-3---3----------5---7-7-----5-7-
E|-5-7-8--------------5-7-8-------------1-3--------------------5-------------

Composição de Waly Salomão
Colaboração e revisão:
  • ANDRE CORREA
373 exibições

0 comentários

Ver todos os comentários

Conseguiu tocar?

0 Tocaram 0 Ainda não

Grave um vídeo tocando Vapor Barato e nos envie!

00:00 / 00:00
Outros vídeos desta música
Repetir Qualidade Automático
Outros vídeos desta música
00:00 / 00:00
Automático

Cifra Club Pro

Aproveite o Cifra Club com benefícios exclusivos e sem anúncios
Cifra Club Pro
Aproveite o Cifra Club com benefícios exclusivos e sem anúncios
OK