Cifra Club

Aprenda

Zé Assassino Compulsivo

O Terno

Cifra: Principal (violão e guitarra)
tom: A
[Intro] E7(9+)  A6/E  A/E  D/E  G7  A7

E|-----x----------------------x-----------------|
B|-----8----------------------7-----------------|
G|-----7----------------------6-----------------|
D|-----6----------------------7-----------------|
A|-----7-------5-7-5----------7-----5-7-5-------|
E|-0-0-x----5-7-------7--0-0--x-5-7-------7-----|

E|-----x----------------------x-----------------|
B|-----5----------------------10----------------|
G|-----6----------------------11----------------|
D|-----7----------------------12----------------|
A|-----7--------5-7-5---------x-----------------|
E|-0-0-x----5-7-------7--0-0--12----------------|


(Riff com acordes da Intro)

 E7/9+      A6/E         A/E        D/E
Zé não era aquele cara que só faz o bem
 E7/9+       A6/E        A/E       D/E
Era alegre e bonito, mas tem um porém
 E7/9+      A6/E      A/E         D/E
Ele era um assassino compulsivo, é
 E7/9+        A6/E       A/E       D/E
Enforcou sua coleguinha quando era do pré

 A            A/G#      A/F#          E
Mas que belo assassino que Zé se tornou

E|-----------------------------------|
B|-----------------------------------|
G|-----------------------------------|
D|-----------------------------------|
A|--------4-6-7----------------------|
E|--4-5-7----------------------------|

  A            A/G#      A/F#          E  
Sempre alegre a cantar, a colega ele matou

 E7/9+      A6/E        A/E         D/E
Zé pegou a namorada com um amante, nu
 E7/9+       A6/E       A/E       D/E
E em vários pedacinhos Zé o picotou
 E7/9+           A6/E      A/E         D/E
Escondeu todos os restos lá no seu jardim
 E7/9+        A6/E       A/E         D/E
E alegre e sorridente Zé cantava assim

 E           A           B
Lalaralala, chop chop chop
 E               A        B
Ai, como eu gosto de matar
 E               A        B
Nada me deixa mais contente
 E         A      B
E feliz a saltitar

 A            A/G#          A/F#       E
Mas que belo Assassino que Zé se tornou

 A             A/G#        A/F#          E  
Sempre alegre a cantar, o amante ele matou

( G#m/E   F#m/E G#m/E F#m/E G#m/E F#m/E  E  )

Encontrou sua alma gêmea numa reunião

De assassinos compulsivos com um tal doutor

Era alegre e bonita e matava sem dó

Os dois se apaixonaram e punham-se a cantar

 E           A            B
Lalaralala, chop chop chop
 E             A      B
Como gostamos de matar
 E             A            B
Nada nos deixa mais contentes
 E          A       B
E felizes a saltitar
 A                A/G#          A/F#      E
Mas que belo par de assassinos eram os dois
 A           A/G#         A/F#          E       (E  G/E  F#/E  F/E)
De mãos dadas a cantar, mataram o doutor
Composição de Martim Bernardes
Colaboração e revisão:
  • Gabriel Augusto
  • Gabriel Paula
17.234 exibições
    • ½ Tom
    • A
    • Bb
    • B
    • C
    • Db
    • D
    • Eb
    • E
    • F
    • F#
    • G
    • Ab
  • Adicionar à lista

    0 comentários

    Ver todos os comentários

    Conseguiu tocar?

    7 Tocaram 9 Ainda não

    Grave um vídeo tocando Zé Assassino Compulsivo e nos envie!

    00:00 / 00:00
    Outros vídeos desta música
    Repetir Qualidade Automático
    Outros vídeos desta música
    00:00 / 00:00
    Automático

    Cifra Club Pro

    Aproveite o Cifra Club com benefícios exclusivos e sem anúncios
    Cifra Club Pro
    Aproveite o Cifra Club com benefícios exclusivos e sem anúncios
    OK