Cifra Club

Hollow Man

Parkway Drive

Cifra: Principal (violão e guitarra)
Tom: D
hey this is the intro to hollow man its off the ep dont close your eyes and this is how 
goes

tabbed by: alex z

legend

t = tappimg
b = bend
h = hammer on
p = pulloff
/ = slide up
\ = slide down

-----------------------------------------------------------------|
-----------------------------------------------------------------|
-------------------------------------------------------------7---|
---4h5p4------4h5p4-------4h5------4h5p4------4h5p4-----4h5------|
---------5-2---------5-2-------0---------5-2--------5-2----------|
-----------------------------------------------------------------|

then harminising comes in

----------------------------------------------------------------|
-------------------------------------------------------------8~-|
7h8p7-------7h8p7-------7h8-----7h8p7-------7h8p7-------7h8-----|
-------8-5---------8-5-------3---------8-5---------8-5----------|
----------------------------------------------------------------|
----------------------------------------------------------------|


verse tremelo

--------------------------------------------------------------------|
--------------------------------------------------------------------|
--------------------------------------------------------------------|
--------------------------------------------------------------------|
---000-666-555-333-000-666-555-333-000-666-555-333-555-666-888-666--|
--------------------------------------------------------------------|

next part of verse

------------------------------------------------------------------------|
------------------------------------------------------------------------|
------------------------------------------------------------------------|
--------7-7------------------7-7------------------7-7-------------------|
--0-0-------8-8--5-5---0-0--------8-8--5-5---0-0-------8-8--5-5---------|
--0-0------------------0-0-------------------0-0------------------------|


------------------------------------------------------------------------|
------------------------------------------------------------------------|
------------------------------------------------------------------------|
------------------------------------------------------------------------|
--7-7--8-8--10-10--8-8-----x2 or 3--------------------------------------|
------------------------------------------------------------------------|

then bridge

-----------------------------------------------------------------------|
-----------------------------------------------------------------------|
---let ring------------------------------------------------------------|
---0-------------------------------------------------------------------|
---0-------------------------------------------------------------------|x3
---0-------------------------------------------------------------------|

-----------------------------------------------------------------------|
-----------------------------------------------------------------------|
------------7------------7----------7----------------------------------|
---0-0-0-0--x---0-0-0-0--x---0-0-0--x----------------------------------|
---0-0-0-0--5---0-0-0-0--5---0-0-0--5--66-55-33-00----10\--------------|
------------------------------------------------------10\--------------|x1

breakdown much slower

-----------------------------------------------------------------------|
-----------------------------------------------------------------------|
------------7------------7----------7----------------------------------|
---0-0-0-0--x---0-0-0-0--x---0-0-0--x----------------------------------|
---0-0-0-0--5---0-0-0-0--5---0-0-0--5--66-55-33-00---------------------|x4
---0-0-0-0------0-0-0-0------0-0-0-------------------------------------|


then verse

--------------------------------------------------------------------|
--------------------------------------------------------------------|
--------------------------------------------------------------------|
--------------------------------------------------------------------|
---000-666-555-333-000-666-555-333-000-666-555-333-555-666-888-666--|
--------------------------------------------------------------------|x2

then other verse thing

------------------------------------------------------------------------|
------------------------------------------------------------------------|
------------------------------------------------------------------------|
--------7-7------------------7-7------------------7-7-------------------|
--0-0-------8-8--5-5---0-0--------8-8--5-5---0-0-------8-8--5-5---------|
--0-0------------------0-0-------------------0-0------------------------|


------------------------------------------------------------------------|
------------------------------------------------------------------------|
------------------------------------------------------------------------|
------------------------------------------------------------------------|
--7-7--8-8--10-10--8-8-----x2-------------------------------------------|
------------------------------------------------------------------------|


then outro

-----------------------------------------------------------|
-----------------------------------------------------------|
-----------------------------------------------------------|
----0-0-0-0-0-0-0-0-0--------------------------------------|
----0-0-0-0-0-0-0-0-0---33-55-66-55------------------------|x2
----0-0-0-0-0-0-0-0-0--------------------------------------|


tehn outro againg but slower

-----------------------------------------------------------|
-----------------------------------------------------------|
-----------------------------------------------------------|
----0-0-0-0-0-0-0-0-0--------------------------------------|
----0-0-0-0-0-0-0-0-0---33-55-66-55------------------------|x1 or 2
----0-0-0-0-0-0-0-0-0--------------------------------------|
exibições 284
Acordes para:

    0 comentários

    mostrar mais comentários

    Conseguiu tocar?

    0 tocaram 0 ainda não

    Grave um vídeo tocando Hollow Man e mande pra gente!

    00:00 / 00:00
    outros vídeos desta música
    repetir qualidade Automático
    Outros vídeos desta música
    00:00 / 00:00
    Automático
    OK