Cifra Club

Wave Of Mutilation

Pixies

Tab de baixo: Versão 3
Standard Tuning

G|-------------------------------------------------------------------|
D|-------------------------------------------------------------------|
A|-------------------------------------------------------------------|
E|---6-6-6-6-6-6-6-6---3-3-3-3-3-3-3-3---6-3-6-3---1-1-1-1-1-1-1-1---|

G|-------------------------------------------------------------------|
D|-------------------------------------------------------------------|
A|-------------------------------------------------------------------|
E|---5-5-5-5-5-5-5-5---6-6-6-6-6-6-6-6---3-3-3-3-3-3-3-3---6-3-6-3---|

G|-------------------------------------------------------------------------|
D|-------------------------------------------------------------------------|
A|-------------------------------------------------------------------------|
E|---1-1-1-1---5-5-5-5---6-6-6-6---1-1-1-1---5-5-5-5---6-6-6-6---1-1-1-1---|

G|---------------------------------|
D|---------------------------------|
A|---------------------------------|
E|---5-5-5-5---6-6-6-6---3-6-3-6---|

G|-----------------------------------------------------------------------------------|
D|-----------------------------------------------------------------------------------|
A|-----------------------------------------------------------------------------------|
E|---1-1-1-1--1-0-1-0---5-5-5-5--8-5-8-5---6-6-6-6-6-6-6-6---3-3-3---6-6---5-5---3---|

G|-----------------------------------------------------------------------------------|
D|-----------------------------------------------------------------------------------|
A|-----------------------------------------------------------------------------------|
E|---1-1-1-1--1-0-1-0---5-5-5-5--8-5-8-5---6-6-6-6-6-6-6-6---3-3-3---6-6---5-5---3---|

G|-----------------------------------------------------------------------------------|
D|-----------------------------------------------------------------------------------|
A|-----------------------------------------------------------------------------------|
E|---1-1-1-1-1-1-1-1---5-5-5-5-5-5-5-5---6-6-6-6-6-6-6-6---3-3-3-3---6---3---6---3---|

G|---------------------------------------------------------------------------------------------|
D|---------------------------------------------------------------------------------------------|
A|---------------------------------------------------------------------------------------------|
E|---1-1-1-1---5-5-5-5---6-6-6-6---1-1-1-1---5-5-5-5---6-6-6-6---1-1-1-1---5-5-5-5---6-6-6-----|

G|---------------------------------------------------------------|
D|---------------------------------------------------------------|
A|---------------------------------------------------------------|
E|---1-------------------6---------1-------------------6---------|

Part 2:
G|-------------------------------------------------------------------|
D|-------------------------------------------------------------------|
A|-------------------------------------------------------------------|
E|---6-6-6-6-6-6-6-6---3-3-3-3-3-3-3-3---6-3-6-3---1-1-1-1-1-1-1-1---|

G|-----------------------------------------------------------------------------------|
D|-----------------------------------------------------------------------------------|
A|-----------------------------------------------------------------------------------|
E|---1-1-1-1--1-0-1-0---5-5-5-5--8-5-8-5---6-6-6-6-6-6-6-6---3-3-3---6-6---5-5---3---|

G|-----------------------------------------------------------------------------------|
D|-----------------------------------------------------------------------------------|
A|-----------------------------------------------------------------------------------|
E|---1-1-1-1--1-0-1-0---5-5-5-5--8-5-8-5---6-6-6-6-6-6-6-6---3-3-3---6-6---5-5---3---|

G|-----------------------------------------------------------------------------------|
D|-----------------------------------------------------------------------------------|
A|---------------------0-0-0-0-0-0-0-0---1-1-1-1-1-1-1-1-------------1-------1-------|
E|---1-1-1-1-1-1-1-1---------------------------------------3-3-3-3-------3-------3---|

G|---------------------------------------------------------------------------------------------|
D|---------------------------------------------------------------------------------------------|
A|---------------------------------------------------------------------------------------------|
E|---1-1-1-1---5-5-5-5---6-6-6-6---1-1-1-1---5-5-5-5---6-6-6-6---1-1-1-1---5-5-5-5---6-6-6-----|

G|--------------------------------------------------------------------|
D|--------------------------------------------------------------------|
A|--------------------------------------------------------------------|
E|---1-1-1-1-1-1-1-1---5-5-6-6-5-5-6-6---1-1-1-1-1-1-1-1---66666/-8---|

G|---------------------------------------------------------------------------------------------|
D|---------------------------------------------------------------------------------------------|
A|---------------------------------------------------------------------------------------------|
E|---1-1-1-1---5-5-5-5---6-6-6-6---1-1-1-1---5-5-5-5---6-6-6-6---1-1-1-1---5-5-5-5---6-6-6-----|

G|---------------------------------------------------------------|
D|---------------------------------------------------------------|
A|---------------------------------------------------------------|
E|---1-------------------6---------1-------------------6---------|
Composição de Black Francis
Colaboração e revisão:
  • Élison Duarte
35 exibições

0 comentários

Ver todos os comentários

Conseguiu tocar?

0 Tocaram 0 Ainda não

Grave um vídeo tocando Wave Of Mutilation e nos envie!

00:00 / 00:00
Outros vídeos desta música
Repetir Qualidade Automático
Outros vídeos desta música
00:00 / 00:00
Automático

Cifra Club Pro

Aproveite o Cifra Club com benefícios exclusivos e sem anúncios
Cifra Club Pro
Aproveite o Cifra Club com benefícios exclusivos e sem anúncios
OK