Cifra Club

Just

Radiohead

Cifra (violão e guitarra)
Selo Cifra Club: esta cifra foi revisada para atender aos critérios oficiais da nossa Equipe de Qualidade.
tom: E
E|-|------------------------------|--------------------------------------|------|
 intro with acoustic guitar                 repeat this lick 2 times

e|-|---------------------|--------------------|-----------------------|---------|
B|-|---------------------|--------------------|-------15-16--------18-|---------|
G|-|--5----5--8-8-8---10-|-11----13-14-----16-|-17--------------------|---------|
D|-|---------------------|--------------------|-------12-13--------15-|---------|
A|-|--3----3--6-6-6---8--|-9-----11-12-----14-|-15--------------------|---------|
E|-|---------------------|--------------------|-----------------------|---------|
 an electric guitar kicks in

e|-|---------------------|------------------------------------------------------|
B|-|-19----21-22\10------|------------------------------------------------------|
G|-|---------------------|------------------------------------------------------|
D|-|-16----18-19\7-------|------------------------------------------------------|
A|-|---------------------|------------------------------------------------------|
E|-|---------------------|------------------------------------------------------|
                 end of riff 1

e|-|-5-----------------------|-------------------------------------|------------|
B|-|-5-----------------------|-4-----------------------------------|------------|
G|-|-5-----------------------|-5-----------------------------------|------------|
D|-|-7-----------------------|-6-----------------------------------|------------|
A|-|-7-----------------------|-6-----------------------------------|------------|
E|-|-5-----------------------|-4-----------------------------------|------------|
    can't get the stink off    he's been hanging 'round for days

e|-|---------6------------8--|---------------------|----------------------------|
B|-|-8---9------10---11------|---------------------|----------------------------|
G|-|-8----------10-----------|---------------------|-5--------------------------|
D|-|-8----------10-----------|-7-------------------|-6--------------------------|
A|-|-6----------8------------|-7-------------------|-6--------------------------|
E|-|-------------------------|-5-------------------|-4--------------------------|
                              comes like a comet   suckered you but not your

E|----|---------6-------------|--------------------------|----------------------|
B|----|-8---9---------------6-|--------------------------|----------------------|
G|----|-8-----------7---8-----|------5--7---7b9-------7--|------5----7---7b8----|
D|----|-8-----------8---------|----7---------------5-----|---6------------------|
A|----|-6-----------8---------|--------------------------|----------------------|
E|----|-------------6---------|--------------------------|----------------------|
 friends                       one day he'll get to you  and teach you how

E|---------|----------------|-------------------------|------------------0---0--|
B|---------|----------------|-------------------------|-------------------------|
G|----5----|-4--------5-----|-8b9---------------------|--9---9-------------3----|
D|-6-------|---5--------4---|-------------------------|--10--10-------4---------|
A|---------|-----5--------4-|-------------------------|--10--10-------4---------|
E|---------|----------------|-------------------------|--8---8--------2---------|
 to be a   ho-------ly      cow   you do it to your---------------------------|-self    you do    and

E|-------------------------------0---------------|--------------------0---0----|
B|------------------------------------1----------|-----------------------------|
G|-----------------------------------------------|-9---9----------------3------|
D|-3------3----3------------3--------------------|-10--10----------4-----------|
A|-3------3----3------------3--------------------|-10--10----------4-----------|
E|-1------1----1------------1--------------------|-8---8-----------2-----------|
 that's what really hurts is you do it to your---self       you do

E|----------------------0----------------|---------------|-----------------|----|
B|----------------------------1----------|---------------|-----------------|----|
G|---------------------------------------|--5---7-8---10-|-11---13-14---16-|----|
D|-3---3-----3---------------------------|---------------|-----------------|----|
A|-3---3-----3---------------------------|--3---5-6---8--|-9----11-12---14-|----|
E|-1---1-----1---------------------------|---------------|-----------------|----|
 you and no one else you do it to your---self                      you do it

E|-------------------|---------------|------------------------------------------|
B|-------15-16----18-|-19---21-22\10-|------------------------------------------|
G|-17----------------|---------------|------------------------------------------|
D|-------12-13----15-|-16---18-19\7--|------------------------------------------|
A|-15----------------|---------------|------------------------------------------|
E|-------------------|---------------|------------------------------------------|
 to yourself                         it's the same thing for the rest of the

E|------------------------|-----------------------------------------|-----------|
B|------------------------|-55555555--77-8888888888888-101010101010-|-----------|
G|------------------------|-----------------------------------------|-----------|
D|------------------------|-----------------------------------------|-----------|
A|------------------------|-----------------------------------------|-----------|
E|------------------------|-----------------------------------------|-----------|
 song until the bridge. lots of distortion

e|-|---------------------------|----------------------------|-------------------|
B|-|--11----11-----12----12----|------12-----12--8-----6----|-------------------|
G|-|--13b15-13b15--14b16-14b16-|-14b16--14b16----10b12-8b10-|-------------------|
D|-|---------------------------|----------------------------|-------------------|
A|-|---------------------------|----------------------------|-------------------|
E|-|---------------------------|----------------------------|-------------------|
    1     2      3     4       1      2        3     4  those number=beats

e|-|---------------------|------------------------------------|-----------------|
B|-|----5----5----5----5-|--17---17-17-15-----13-13---13--x-x-|-----------------|
G|-|-7b9--7b9--7b9--7b9--|------------------------------------|-----------------|
D|-|---------------------|--14---14-14-12-----10-10---10--x-x-|-----------------|
A|-|---------------------|------------------------------------|-----------------|
E|-|---------------------|------------------------------------|-----------------|
   1    2    3    4    :) 1    2         3          4

e|-|------------------------------------|--------------------------------------|
B|-|-16--16-16-15-----13-13---13--11/13-|-11-11-11--x-x-13/15--13-13---13-x-x--|
G|-|------------------------------------|-----------x-x------------------------|
D|-|-13--13-13-12-----10-10---10--8/-10-|-8--8--8---x-x-10/12--10-10---10-x-x--|
A|-|------------------------------------|--------------------------------------|
E|-|------------------------------------|--------------------------------------|
   1   2         3          4        :) 1         2          3       4

E|------------------------------------------------------------------------------|
B|------------------------------------------------------------------------------|
G|------------------------------------------------------------------------------|
D|------------------------------------------------------------------------------|
A|------------------------------------------------------------------------------|
E|------------------------------------------------------------------------------|
 after that,play again the parts between the smileys                 and

e|-|------------------|---------------------------------------------------------|
B|-|------------------|---------------------------------------------------------|
G|-|-4-4-4-4--3-3-3-3-|-2-------------------------------------------------------|
D|-|-5-5-5-5--4-4-4-4-|-3-------------------------------------------------------|
A|-|-5-5-5-5--4-4-4-4-|-3-------------------------------------------------------|
E|-|-3-3-3-3--2-2-2-2-|-1-------------------------------------------------------|
                                 then scrape the pick down the strings

E|------------------------------------------------------------------------------|
B|------------------------------------------------------------------------------|
G|------------------------------------------------------------------------------|
D|------------------------------------------------------------------------------|
A|------------------------------------------------------------------------------|
E|------------------------------------------------------------------------------|
 here you play the same chords as the " you do it to yourself" part.

e|-|-------------------16-17-------------------16-17-20/17----------------------|
B|-|----------16-18-19----------------16-18-19----------------------------------|
G|-|-16-17-19----------------16-17-19-------------------------------------------|
D|-|----------------------------------------------------------------------------|
A|-|----------------------------------------------------------------------------|
E|-|----------------------------------------------------------------------------|
 Then, there's the part where he plays with a pitch shifter. it ends with

e|-|----------------|-----------------------|----------------------------------|
B|-|-x--4--x----4---|---------------8-8-8-8-|----------------------------------|
G|-|-x--3--x----3---|--8-8-88888888-8-8-8-8-|-8p5------5-8p5------5-8p5--------|
D|-|-x--2--x----2---|-----------------------|-----8b10-------8b10-------8b10---|
A|-|-x--3--x----3---|-----------------------|----------------------------------|
E|-|----------------|-----------------------|----------------------------------|
 this chord     and      this 2 times   and

e|-|--------------10p8--------------------|------------------------------------|
B|-|------------8------11-10b11p8---------|------------------------------------|
G|-|-5-8p5------------------------10-8----|-8p5------5-8p5-------5-8p5---------|
D|-|-------8b10------------------------10-|-----8b10-------8b10--------8b10----|
A|-|--------------------------------------|------------------------------------|
E|-|--------------------------------------|------------------------------------|

e|-|------------------------------------------|--------------------------------|
B|-|------------8-----8--8--8--8--8--8--8--8--|--------------------------------|
G|-|-5-8p5------10b11-11-11-11-11-11-11-11-11-|--8p5------8p5------5-8p5-------|
D|-|-------8b10-------------------------------|------8b10-----8b10-------8b10--|
A|-|------------------------------------------|--------------------------------|
E|-|------------------------------------------|--------------------------------|

e|-|---------------10--------------------|------------------------------|-------|
B|-|------------------11-10b11p8---------|------------------------------|-------|
G|-|-8-8p5-----------------------10-8----|-8p5------8p5------5-8p5------|-------|
D|-|-------8-10-10--------------------10-|-----8b10-----8b10-------8b10-|-10/0--|
A|-|---------10-10-----------------------|------------------------------|-------|
E|-|-------------------------------------|------------------------------|-------|



************************************

| x  Dead note
| p  Pull-off
| b  Bend
| /  Slide up
| \  Slide down
Outros vídeos desta música
    2.487 exibições
      • ½ Tom
      • A
      • Bb
      • B
      • C
      • Db
      • D
      • Eb
      • E
      • F
      • F#
      • G
      • Ab
    • Adicionar à lista

    Afinação da cifra

    Afinador online

      0 comentários

      Ver todos os comentários

      Conseguiu tocar?

      0Tocaram0Ainda não

      Grave um vídeo tocando Just e nos envie!

      Toque também

      1. Imagem do artista Jeff BuckleyHallelujah Jeff Buckley
      2. Imagem do artista SlowdiveDagger Slowdive
      3. Imagem do artista Sonic YouthIncinerate Sonic Youth
      4. Imagem do artista PulpUnderwear Pulp

      Entre para o Cifra Club PRO

      Tenha acesso a benefícios exclusivos no App e no Site

      • Chega de anúncios

      • Badges exclusivas

      • Mais recursos no app do Afinador

      • Atendimento Prioritário

      • Aumente seu limite de lista

      • Ajude a produzir mais conteúdo

      Cifra Club Pro

      Aproveite o Cifra Club com benefícios exclusivos e sem anúncios
      Cifra Club Pro
      Aproveite o Cifra Club com benefícios exclusivos e sem anúncios
      Ops (: Contenido disponible sólo en portugués.
      OK